Oops, an error
Loading. Please wait.

Perra tab

version 3
version 3

Whole song

46 views 1 this week
no commentswrite comment
1 2 3 4 5
3 more votes to show rating
add to favorites
×
Save as Personal and add changes to this tab that will be seen only by you. Learn more ›
×
You can save this tab as Personal to edit and correct it or add notes. All changes will be seen only by you. Learn more »
launch autoscroll
font size
0
reset
how to read this tab
guitar tuner
edit
Autoscroll
slow
fast
+/-
esc
set tempo
stop
   Vibrato>>>                                           ~
   Estiradas>>                                          B
   Estirar y bajar>>>                                   ba
   Slide>>>                                             s
   Sonidos armónicos>>>                                 <>
   Ligados ascendentes>                                 h
   Ligados descendentes>                                p
   Se mantiene estirada>                                /
   Baja estirada>                                       //
   Tremolo>                                             *
   Toca nota siguiente con estirada mantenida           b/


Perra- Viejas Locas


Intro

  C#m            C#m B
e|-4--------------4--2-----------
B|-5--------------5--4-----------
G|-6--------------6--4-----------
D|-6--------------6--4-----------  X2
A|-4--------2-----4--2----2--2-4-
E|---0--2-4---4--------4---------


  Riff Principal (Wah-Wah)

             C#m           C#m
e|------------4-------------4--------
B|------------5-------------5--------
G|------------6-------------6--------
D|------------6-------------6--etc---
A|-----2---2--4------2---2--4--------
E|-2-4---4-------2-4---4-------------


   Riff 1                              Riff 2
e|-----------------------------------|----------------|
B|-----------------------------------|-----5--------5-|
G|-9-11-11b-11/-11/-11/-11/-11//-11v-|-4s6----6-4h6---|
D|-----------------------------------|----------------|
A|-----------------------------------|----------------|
E|-----------------------------------|----------------|

  Riff 3
e|---------------------------
B|14b-14ba-14ba-14ba---------
G|-------------------11v-----
D|---------------------------
A|---------------------------
E|---------------------------


nota: el riff 1 estira la cuerda, despues baja un poco,
y despues baja mas y vuelve a la nota
sin estirar. Para que vean los sonidos,
 aca lo pongo como si fueran las notas solas
en vez de estirar:

e|----------------------------
B|----------------------------
G|-9-11----13-13-13--12-12-11-
D|----------------------------
A|----------------------------
E|----------------------------


Me dejaste en la ruina
no en la ruina material;
ahora tengo un problema,
un problema mental.


Sos una Perra...

Perra...

Perra...

Perra...  Riff 1


Me tuviste tanto tiempo
pusiste dulce en mi boca,
yo me estaba prendiendo fuego
y vos no me ibas a apagar no!
Sos una Perra... Perra... Perra... Perra...
Sos una Perra... Perra... Perra... Perra...


A             B                    C#m    Riff 1
Siempre fuiste una gran Perra mi amor...


A     Riff 2  B                C#m
Siempre fuiste la más! ...Perra.


Sobre el solo de saxo:


e|-6------------|----|-4-----------|----|
B|-7------------|----|-5-----------|----|
G|-8------------|-X4-|-6-----------|-X4-|
D|-8------------|----|-6-----------|----|
A|-6-----4---4--|----|-4-----2---2-|----|
E|---4-6---6----|----|---2-4---4---|----|

nota: esto tambien lo hace en el estribillo siguiente


Pusiste clavos a mis zapatos
no me dejabas ver el sol,
no me gusta que me grites, nena;
por qué no te buscás otro novio


si sos una Perra... Perra... Perra... Perra...


Perra... Perra... Perra... Perra...


Sos una Perra... Perra... Perra... Perra...


Perra... Perra... Perra... Perra...  Riff 3


Sos una Perra... como una Perra. como una Perra..como una Perra


Siempre fuiste una gran Perra mi amor...
Siempre fuiste la más! ...Perra


  Solo
e|----------------------------------------------------------------
B|-12---12--------------------------------------------------------
G|-11b-----11ba-p9-11-9------------------9--11ba-p9----9----------
D|-----------------------11p9----9h10h11------------11------------
A|----------------------------11----------------------------------
E|----------------------------------------------------------------


e|-------------9--------------------------------------------------
B|-----------9---12-----------------------------------------------
G|-----9-11b--------11b-9--11-11p9----11-11-9---------------------
D|-s11---------------------11-11p9-11-11-11-9--X-tres-------------
A|----------------------------------------------------------------
E|----------------------------------------------------------------


e|----------------------------------------------------------------
B|----------------------------------------------------------------
G|-----------------9----------------------------------------------
D|-11p9----9h10h11---11-11s9--9s8-8s7-----------------------------
A|------11--------------------------------------------------------
E|----------------------------------------------------------------


Ahi esta el tema completo

            
            
Suggest correction
Creating personal tab
Creating personal tab
You can edit any tab online and save it as your Personal.

You can edit, replace or remove any tab part or add personal notes – all changes will be seen only by you.

Personal tabs can be accessed anytime from any device, even offline.
Learn more »
Give kudos to tab author, rate the tab!
1 2 3 4 5
comments
print report bad tab
guest
Wanna post a correction for this tab? Suggest correction