Oops, an error
Loading. Please wait.

Piedrabuena Blues tab

26 views 1 this week
no commentswrite comment
1 2 3 4 5
3 more votes to show rating
add to favorites
×
Save as Personal and add changes to this tab that will be seen only by you. Learn more ›
×
You can save this tab as Personal to edit and correct it or add notes. All changes will be seen only by you. Learn more »
launch autoscroll
font size
0
reset
how to read this tab
guitar tuner
edit
Autoscroll
slow
fast
+/-
esc
set tempo
stop
PIEDRA BUENA-BLUES

  Riff
e|---------
B|---------
G|---------
D|---4--5--
A|---4--5--
E|---2--3--

Estrofa

 Riff X4

 C5     G5

 D5 C5  G5


  Primer solo (1:06)
e|-------------------------------------------------------------
B|-----------------------------6----6----6---------------------
G|-5b-5ba-p3---3--3b--3-3-3-5b---5b---5b---5ba-p3---3----------
D|-----------5------------------------------------5---5p3------
A|--------------------------------------------------------5----
E|-------------------------------------------------------------


e|-------------------------------------------------------------
B|----------6-------6-----------6------------------------------
G|-----3--3-5ba-3-3-5ba-3---3-3-5ba-3---3--3-3b---3-3b---3-3b--
D|-3h5--------------------5-----------5---------5------5------5
A|-------------------------------------------------------------
E|-------------------------------------------------------------


e|----------s3-3-3--3-3-3---3-3-3--3-3-3---3-3-3--3-3-3--------
B|----------s3-3-3--3-3-3---3-3-3--3-3-3---3-3-3--3-3-3--------
G|-3-3b--------------------------------------------------------
D|------5------------------------------------------------------
A|-------------------------------------------------------------
E|-------------------------------------------------------------


e|-3-3-3--3-3-3---s5-5-5--6-6-5---s3-3-3--3-3-3---
B|-3-3-3--3-3-3---s5-5-5--6-6-5---s3-3-3--3-3-3---
G|------------------------------------------------
D|------------------------------------------------
A|------------------------------------------------
E|------------------------------------------------


  Segundo solo (2:58)
e|-----------------------------s3-3-3------10------------------
B|-6---------------3---5-5-3---s3-3-3--10b----10ba-p8---8------
G|-5b-5ba-p3---3---3---5-5-3b-------------------------9--------
D|-----------5-------5-----------------------------------------
A|-------------------------------------------------------------
E|-------------------------------------------------------------


e|-------------------------------------10-----10-----10-----10-
B|--------------10ba-p8---8--10p8--10b----10b----10b----10b----
G|-9p7---7h8h9----------9--------------------------------------
D|-----9-------------------------------------------------------
A|-------------------------------------------------------------
E|-------------------------------------------------------------


e|-----10------------------------------------------------------
B|-10b----10ba-p8---8----8---8---8---s11-11--11-11-11--11-11-11
G|----------------9----9---9---9-----s12-12--12-12-12--12-12-12
D|-------------------------------------------------------------
A|-------------------------------------------------------------
E|-------------------------------------------------------------


e|-------------------------------------------------------------
B|-11-11-11--11-11-11--11-11-11--11-11-11--11-11-11--11-11-11--
G|-12-12-12--12-12-12--12-12-12--12-12-12--12-12-12--12-12-12--
D|-------------------------------------------------------------
A|-------------------------------------------------------------
E|-------------------------------------------------------------


e|-------------------------13-----13------------------
B|-11-11-11--11-11-11--13b----13b----13ba-p11----11---
G|-12-12-12--12-12-12-------------------------12------
D|----------------------------------------------------
A|----------------------------------------------------
E|----------------------------------------------------


  Final
e|--12--11--10-----8---
B|---------------------
G|--12--11--10--s9-----
D|---------------------
A|---------------------
E|---------------------

Nunca entendi la letra de esta cancion, porqeu se escucha un poco mal..
si alguien la sabe agregueme al mail y me la pasa ajaj gracias

cualquier otra cosa tambien agreguenme
Suggest correction
Creating personal tab
Creating personal tab
You can edit any tab online and save it as your Personal.

You can edit, replace or remove any tab part or add personal notes – all changes will be seen only by you.

Personal tabs can be accessed anytime from any device, even offline.
Learn more »
Give kudos to tab author, rate the tab!
1 2 3 4 5
comments
print report bad tab
guest
Wanna post a correction for this tab? Suggest correction