Oops, an error
Loading. Please wait.

Que Vas A Hacer Tan Sola Hoy tab

version 2
version 2

Whole song

38 views 1 this week
no commentswrite comment
1 2 3 4 5
3 more votes to show rating
add to favorites
×
Save as Personal and add changes to this tab that will be seen only by you. Learn more ›
×
You can save this tab as Personal to edit and correct it or add notes. All changes will be seen only by you. Learn more »
launch autoscroll
font size
0
reset
how to read this tab
guitar tuner
edit
Autoscroll
slow
fast
+/-
esc
set tempo
stop
Intro: Riff (Am-Bm)   Base I :  [Am-Bm] x 4

Riff: A

1----------------------------------------------------]
2----------------------------------------------------]
3----------------------------------------------------]
4-----------77-55---57----------77---57--------------]
5-----------------7----------------7-----------------]
6-----55-------------------55------------------------]

Riff: B

1-------------------------------------------------]
2-------------------------------------------------]
3-------------------------------------------------]
4----------99--77---79----------99--77---7--------]
5-----------------9--------------------9----------]
6-----77-------------------77---------------76(5)-]


Yeite:

 A                                               B
1---------------------------------------------------------]
2---------------------------------------------------------]
3---------------------------------------------------------]
4---------------------------------------------------------]
5---------------------------------------------------------]
6----------------------3h4h55--3h4h55--3h4h55--3h4h55-----]
 A                                               B
1---------------------------------------------------------]
2---------------------------------------------------------]
3---------------------------------------------------------]
4---------------------------------------------------------]
5---------------------------------------------------------]
3-3h4h5/7--5h6h77--5h6h77--5h6h77-5h6h77--5h6h77-7-6-55---]


Am
Nos conocimos de casualidad
     Bm                                Bm-Bbm-Am
vos ibas en tu auto y yo por la ciudad
    Am
caminando con amigos viendo chicas pasar,
   Bm
y vos cruzaste justo y entonces quise hablarte
      Am
pero mostraste tus dientes y me gruñiste,
   Bm
porque soy diferente a lo que quiere tu papá,
       Am
pero aceptame como soy,soy muy diferente a vos,
               Bm
pero ¿qué vas hacer tán sola hoy?.
     Bm-Bbm-Am
...   A-cep-tame como soy,soy muy diferente a vos,
               Bm
pero ¿qué vas hacer tán sola hoy?.


Nena yo no quiero joderte
solo quiero estar un rato más con vos.
juro que no quiero comprometerte,
ni quiero que tu novio sepa lo que hicimos hoy.

Inter: [Am-Bm] x 4

Nena yo no quiero joderte...

Final: [Am-Bm] x 8  Bm


Nota: El (5) marca la entrada a la
base(I);el yeite se ejecuta sobre base (I) .


DURANTE TODA LA CANCION...
                                  Am         Bm
2da GUITARRA HACE ESTO -->    1---5----------7-------]
                              2---5----------7-------]
                              3---5----------7-------]
                              4---7----------9-------]
                              5---7----------9-------]
                              6---5----------7-------]


                                   Am        Bm
1er GUITARRA HACE ESTO -->    1----5--5------7--7----]
                              2----8--5------10-7----]
                              3----5--5------7--7----]
                              4----7--7------9--9----]
                              5----------------------]
                              6----------------------]


______________________________________________________________
BUENO, LE HICE UN PAR DE ARREGLOS
CUALQUIR COSA... lean_027@

            
            
Suggest correction
Creating personal tab
Creating personal tab
You can edit any tab online and save it as your Personal.

You can edit, replace or remove any tab part or add personal notes – all changes will be seen only by you.

Personal tabs can be accessed anytime from any device, even offline.
Learn more »
Give kudos to tab author, rate the tab!
1 2 3 4 5
comments
print report bad tab
guest
Wanna post a correction for this tab? Suggest correction