Oops, an error
Loading. Please wait.

Ruta 66 tab

version 1
version 1

Whole song

34 views 1 this week
no commentswrite comment
1 2 3 4 5
3 more votes to show rating
add to favorites
×
Save as Personal and add changes to this tab that will be seen only by you. Learn more ›
×
You can save this tab as Personal to edit and correct it or add notes. All changes will be seen only by you. Learn more »
launch autoscroll
font size
0
reset
how to read this tab
guitar tuner
edit
Autoscroll
slow
fast
+/-
esc
set tempo
stop
Actuaizo despues de un par de años, tenia sus errores, con
en el tiempo uno se va corrijiendo, y decidi acomodarla un poco
25 1 2011.

--------------------------
Hola a todos, acá está el tab completo de este tema...
Una aclaración
En los estribillos son acordes de quinta con la octava agregada...
i el solo seguramente tiene algun error pero suenaa si le ponen onda ..

bueno ahi va.
====================================================================


1ra viola

      Riff 1                   Riff 2    Riff 3
E|------------------|     E|------------------------|
B|----7-5-----7-5---|     B|--12-10-----14-12-------|
G|----7-5-7---7-5-7-|     G|--12-10-----14-12-------|
D|--------7-------7-|     D|-------12--------14-----|
A|------------------|     A|------------------------|
E|------------------|     E|------------------------|

Estos tres riffs se hacen durante todo el tema.
El riff 1 se toka mientras la 2da viola toka  LA
el 2 mientras toka Re i el 3er riff con el Mi

2da viola

      LA5         RE5         MI5
D|-----------|--7--7--9--|--9--9--11--|
A|--7--7--9--|--5--5--5--|--7--7--7---|
E|--5--5--5--|-----------|------------|

Riff 4

  A5 B5 C5 C#5 D5
G|------------------------|
D|--7-9-10-11-12----------|
A|--7-9-10-11-12----------|
E|--5-7-8--9--10----------|


Intro: Riff 1 dos veces

A5               D5            A5
Well if you ever plan to motor west
          D5                                   A5
Just take my way that's the highway that's the best
        E5         D5       A5
Get your kicks on Route 66


A5              D5             A5
Well it winds from Chicago to L.A.
          D5                  A5
More than 2000 miles all the way
        E5         D5       A5
Get your kicks on Route 66


     A5                  A5
Well goes from St. Louie down to Missouri
A5            Riff 4
Oklahoma city looks oh so pretty
       D5               A5
You'll see Amarillo and Gallup, New Mexico
E5                 D5
Flagstaff, Arizona don't forget Winona
A5
Kingman, Barstow, San Bernadino

A5              D5                A5
Would you get hip to this kindly tip
       D5                      A5
And go take that California trip
        E5         D5       A5
Get your kicks on Route 66

Solo (sobre la misma base)


E|-------------5----5----5---5--5-5-5-5--------------------|
B|------------5----5----5----5--5-5-5-5--------------------|
G|--------7>9---7>9--9>7--9>7----------------7-5-----------|
D|-----------------------------------------------7---------|
A|---------------------------------------------------------|
E|---------------------------------------------------------|


E|---10-10-10-10-9--9--9--7-7-7--5-5----5-----5-5-5-5------|
B|---12-12-12-12-10-10-10-9-9-9--7-7----5-----5-5-5-5------|
G|-----------------------------------7>9--7>9----------7-5-|
D|------------------------------------------------7--------|
A|---------------------------------------------------------|
>

E|---8--8--8--8--7-7-7-5-5-5-3-3-----------5-5-5-5---------|
B|---10-10-10-10-8-8-8-7-7-7-5-5-----------5-5-5-5---------|
G|--------------------------------7>9--7>9---------7-5-----|
D|-----------------------------------------------------7---|
A|---------------------------------------------------------|
E|---------------------------------------------------------|

     A5                  A5
Well goes from St. Louie down to Missouri
A5            RIFF 2
Oklahoma city looks oh so pretty
       D5               A5
You'll see Amarillo and Gallup, New Mexico
E5                 D5
Flagstaff, Arizona don't forget Winona
A5
Kingman, Barstow, San Bernadino

A5              D5                A5
Would you get hip to this kindly tip
       D5                      A5
And go take that California trip
        E5         D5       A5
Get your kicks on Route 66

*******
*Final*
*******
Bueno, dudas y correcciones a mi mail...

[FeR.!]
Fer188_rnr@
Face: Fernando cianci

            
            
Suggest correction
Creating personal tab
Creating personal tab
You can edit any tab online and save it as your Personal.

You can edit, replace or remove any tab part or add personal notes – all changes will be seen only by you.

Personal tabs can be accessed anytime from any device, even offline.
Learn more »
Give kudos to tab author, rate the tab!
1 2 3 4 5
comments
print report bad tab
guest
Wanna post a correction for this tab? Suggest correction