Oops, an error
Loading. Please wait.

Sacatelo tab

version 1
version 1

Whole song

40 views 1 this week
no commentswrite comment
1 2 3 4 5
3 more votes to show rating
add to favorites
×
Save as Personal and add changes to this tab that will be seen only by you. Learn more ›
×
You can save this tab as Personal to edit and correct it or add notes. All changes will be seen only by you. Learn more »
launch autoscroll
font size
0
reset
how to read this tab
guitar tuner
edit
Autoscroll
slow
fast
+/-
esc
set tempo
stop
Intro:

E|5--8------------------------------------------------------|
B|5-------8-------------------------------------------------|
G|--------7(9)--5---5---------5-----------------------------|
D|----------------7-5----5-7--5-----------------------------|
A|---------------------7------------------------------------|
E|----------------------------------------------------------|

C
Cuando esté cerca de vos
                            F
Voy a ser yo el que te arranque
   Bb
No vengas conque
        G                C
Mi intención no la buscaste
C                                      F    D D Dsus4 Dsus4 D
Nena, si sube el calor sacatelo, por favor
C                    G          C
Ahora no es como antes es mejor.

C
Tirados en un sillón
                            F
Jugados los dos, siento mojarte
     Bb
Tu risa ya te delató
     G             C
Y empieza a gustarte
 C                                       F    D D Dsus4 Dsus4 D
Por eso entrégate con todo tu amor, por favor
C                   G          C
Ahora no es como antes, es mejor.

Estribillo

F          G              C
Hay mucho tiempo para hablar
F       G             C
Es que no puedo esperarte
F             G       C               F
Sólo esta noche, nena, déjame llenarte
F      C  F      C  F     G             C
Es mejor, es mejor, es mejor si la probas

Solo

E|----------------------------------------------|
B|-----------8-----8-----8-----8----------7-----|
G|-----5-7(9)---7(9)--7(9)--7(9)--7(9)7-5---5-5-|
D|-5-7------------------------------------------|
A|----------------------------------------------|
E|----------------------------------------------|

E|------------------------|
B|------------------------|
G|----------5-5--5--------|
D|-7-5---5-7--------7---7-|
A|----7-------------------|
E|------------------------|


E|-----------------------5-3----------------|
B|-----6-6----------5(6)---------8--8-----8-|
G|-5(7)-----7-5---5----------7(9)-----7(9)--|
D|--------------7---------------------------|
A|------------------------------------------|
E|------------------------------------------|


E|-----------------------------|
B|-----------------------------|
G|-----------5-5------8--------|
D|7-5---5-7------7(9)---x 8----|
A|----7------------------------|
E|-----------------------------|


E|------------------------------------------|
B|------------------------------------------|
G|-7(9)5--5-5------------------------5-7-5--|
D|------7-----5-7---5------------5-7--------|
A|----------------7---7--5---5-7------------|
E|-------------------------8----------------|

E|--------------------------------|
B|----10-8-----8------------------|
G|-9------7(9)--5-----------------|
D|-----------------7-5-5--7-5---5-|
A|----------------------------7---|
E|--------------------------------|


E|-----------------------------|
B|-----------------------------|
G|-7(9)5------------5-5--5---5-|
D|--------7-5---5-7--------7---|
A|------------7----------------|
E|-----------------------------|


Fin:  D  G  F  C
Suggest correction
Creating personal tab
Creating personal tab
You can edit any tab online and save it as your Personal.

You can edit, replace or remove any tab part or add personal notes – all changes will be seen only by you.

Personal tabs can be accessed anytime from any device, even offline.
Learn more »
Give kudos to tab author, rate the tab!
1 2 3 4 5
comments
print report bad tab
guest
Wanna post a correction for this tab? Suggest correction