Oops, an error
Loading. Please wait.

Tirado Y Enrollado tab

39 views 1 this week
no commentswrite comment
1 2 3 4 5
3 more votes to show rating
add to favorites
×
Save as Personal and add changes to this tab that will be seen only by you. Learn more ›
×
You can save this tab as Personal to edit and correct it or add notes. All changes will be seen only by you. Learn more »
launch autoscroll
font size
0
reset
how to read this tab
guitar tuner
edit
Autoscroll
slow
fast
+/-
esc
set tempo
stop
   Vibrato>>>                                           ~
   Estiradas>>                                          B
   Estirar y bajar>>>                                   ba
   Slide>>>                                             s
   Sonidos armónicos>>>                                 <>
   Ligados ascendentes>                                 h
   Ligados descendentes>                                p
   Se mantieneestirada>                                 /
   Baja estirada                                        //
   Tremolo                                              *
   Toca nota siguiente con estirada mantenida           b/

intro

   E5 B5                          E5
e|--------------------------------------
B|--------------------------------------
G|-99-----------------------------9-9---
D|-99-----------------------------9-9---
A|-77-99--9-11-9--99-11-9--11-9---7-7---
E|----77--7-7--7--77-7--7--7--7---------

   B5
e|---------------------------------------
B|---------------------------------------
G|-6b---6ba-p4----4~---------------------
D|-------------6-------------------------
A|-----------------------9-7-9-7---------
E|--------------------------------10-7---

1er solo

   E5    B5   F#5           B5
e|-7--7----------------------------------
B|-7b---7//---7~-------------------------
G|-----------------6ba-p4---4~-----------
D|------------------------6--------------
A|---------------------------------------
E|---------------------------------------

2do solo

  E5    B5   F#5        B5            F#5   E5        B5
e|----7----------------------7--7-------------------------
B|-7b---7//-7~---------------7b---7//-7~----7-------------
G|-------------6ba-p4----4~--------------6b---6//-4----4~-
D|--------------------6------------------------------6----
A|--------------------------------------------------------
E|--------------------------------------------------------


ahora pongo los punteos que hace despues de cada verso desde
"aquella chica me llevo a algun lado"

  1)                 2)            3)
e|------------------|-4----------|----------------------|
B|----7-------------|---7--------|----7-----------------|
G|-6b---6//-p4---4~-|-----6ba-4~-|-6b---6//-p4---4------|
D|-------------6----|------------|-------------6---6--4~|
A|------------------|------------|----------------------|
E|------------------|------------|----------------------|
  4)                          5)                    6)
e|---------------------------|---------------------|----------|
B|----7----------------------|----7----7-----------|-igual----|
G|-6b---6p4---------------4~-|-6b---6b---6ba-4---4~|--que-el--|
D|----------6-6p4---4-5-6----|-----------------6---|-----4)---|
A|----------------6----------|---------------------|----------|
E|---------------------------|---------------------|----------|


eso seria todo
Suggest correction
Creating personal tab
Creating personal tab
You can edit any tab online and save it as your Personal.

You can edit, replace or remove any tab part or add personal notes – all changes will be seen only by you.

Personal tabs can be accessed anytime from any device, even offline.
Learn more »
Give kudos to tab author, rate the tab!
1 2 3 4 5
comments
print report bad tab
guest
Wanna post a correction for this tab? Suggest correction