Oops, an error
Loading. Please wait.

Perlas Y Diamantes tab

362 views 9 this week
no commentswrite comment
1 2 3 4 5
3 more votes to show rating
add to favorites
×
Save as Personal and add changes to this tab that will be seen only by you. Learn more ›
×
You can save this tab as Personal to edit and correct it or add notes. All changes will be seen only by you. Learn more »
launch autoscroll
font size
0
reset
how to read this tab
guitar tuner
edit
Autoscroll
slow
fast
+/-
esc
set tempo
stop
A través de esto se pueden guiar, las notas  se arriman una escala adelante
y bajarle medio tono a la guitarra. casi en todas las canciones de ellos
así están afinadas las guitarras.


F#-A#-A-C:  Estos son las notas que se arriman un traste

G#-C#-C#m-D#m: Estos son acordes normales, nada de arrimaciones.


               NOTAS ARRIMADAS UNA ESCALA

F# e----3---   A# e----2---   A e----0---   C e----0---
   B----3---      B----3---     B----3---     B----2---
   G----4---      G----4---     G----3---     G----0---
   D----5---      D----4---     D----3---     D----3---
   A----5---      A----2---     A----0---     A----4---
   E----3---      E----2---     E----0---     E----0---

F#        A#
Si pudiera darte amor
A         C
si pudiera amarte
F#        A#        A         C
si pudiera sabes que no sabria herirte
F#      A#              A           C
no como con quien te vas que no sabe amarte
F#      A#    A    C
llena tu mente con perlas y diamantes


EN LA SOLA SON ACORDES NORMALES.  Nada  de cambios, las notas
siempre van a estar en sus lugares.

G# - C# - C#m - D#m

con perlas y diamantes
e---------------
B--7---8--10----
G---6---8--10---
D---------------
A---------------
E---------------

G# - C# - C#m - D#m

con perlas y diamantes
e---------------
B--7---8--10----
G---6---8--10---
D---------------
A---------------
E---------------

A
juegas a sentirte bien
juegas a sentirte muy bien
e-----------------
B--7-7-7-7-6-5-4--
G---------------7-
D-----------------
A-----------------
E-----------------

A
juegas bien ese papel
vuelve a tu lugar
D
vuelve y no tardes

F#        A#
Si pudiera darte amor
A         C
si pudiera amarte
F#        A#        A         C
si pudiera sabes que no sabría herirte
F#      A#              A           C
no como con quien te vas que no sabe amarte
F#      A#    A    C
llena tu mente con perlas y diamantes  hey!!!

G# - C# - C#m - D#m

con perlas y diamantes
e---------------
B--7---8--10----
G---6---8--10---
D---------------
A---------------
E---------------

G# - C# - C#m - D#m

con perlas y diamantes
e---------------
B--7---8--10----
G---6---8--10---
D---------------
A---------------
E---------------


G# - C# - C#m - D#m

con perlas y diamantes
e---------------
B--7---8--10----
G---6---8--10---
D---------------
A---------------
E---------------

G# - C# - C#m - D#m

con perlas y diamantes
e---------------
B--7---8--10----
G---6---8--10---
D---------------
A---------------
E---------------


el camino por donde voy
solo me recuerda tu piel

e-----------------
B-----------------
G--7-7-6-5-4------
D------------7----
A-----------------
E-----------------


aun así nunca estas aquí
e-----------------
B--7-7-7-7-6-5-4--
G---------------7-
D-----------------
A-----------------
E-----------------


vuelve a tu lugar
D
vuelve y no tardes

F#        A#
Si pudiera darte amor
A         C
si pudiera amarte
F#        A#        A         C
si pudiera sabes que no sabría herirte
F#      A#              A           C
no como con quien te vas que no sabe amarte
F#      A#    A    C
llena tu mente con perlas y diamantes   Heyy!!!!!

G# - C# - C#m - D#m

con perlas y diamantes
e---------------
B--7---8--10----
G---6---8--10---
D---------------
A---------------
E---------------

G# - C# - C#m - D#m

con perlas y diamantes
e---------------
B--7---8--10----
G---6---8--10---
D---------------
A---------------
E---------------


G# - C# - C#m - D#m

con perlas y diamantes
e---------------
B--7---8--10----
G---6---8--10---
D---------------
A---------------
E---------------

G# - C# - C#m - D#m

con perlas y diamantes
e---------------
B--7---8--10----
G---6---8--10---
D---------------
A---------------
E---------------

REPETIR 4 VECES HASTA TERMINAR LA CANCIÓN


           F#--A#--A

           e-----------------
           B--7-7-7-7-6-5-4--
           G---------------7-
           D-----------------
           A-----------------
           E-----------------

Y esto es todo amigos, si alguien tiene algún comentario pueden escribirme
en mi correo que es:emehelmer@    !!!! Arriba viento en contra!!!

            
            
Suggest correction
Creating personal tab
Creating personal tab
You can edit any tab online and save it as your Personal.

You can edit, replace or remove any tab part or add personal notes – all changes will be seen only by you.

Personal tabs can be accessed anytime from any device, even offline.
Learn more »
Give kudos to tab author, rate the tab!
1 2 3 4 5
comments
print report bad tab
guest
Wanna post a correction for this tab? Suggest correction