Oops, an error
Loading. Please wait.

Princesa De Seda tab

version 2
version 2

Whole song

27 views 1 this week
no commentswrite comment
1 2 3 4 5
3 more votes to show rating
add to favorites
×
Save as Personal and add changes to this tab that will be seen only by you. Learn more ›
×
You can save this tab as Personal to edit and correct it or add notes. All changes will be seen only by you. Learn more »
launch autoscroll
font size
0
reset
how to read this tab
guitar tuner
edit
Autoscroll
slow
fast
+/-
esc
set tempo
stop
Ahi les va otra rola... espero que les guste y que la puedan sacar
Recuerden que para tocar las canciones de VEC Tienen
que bajar medio tono la guitarra.

E ||------------------------|------------------------|
B ||------------------------|------------------------|
G ||-------7-------7-----7--|-------6-------6-----6--|
D ||------------------------|------------------------|
A ||--5-5-----5-5-----5-----|--5-5-----5-5-----5-----|
E ||------------------------|------------------------|

|------------------------|------------------------||
|------------------------|------------------------||
|-------4-------4-----4--|-------6-------6-----6--||
|------------------------|------------------------||
|--5-5-----5-5-----5-----|--5-5-----5-5-----5-----||
|------------------------|------------------------||

E ||------------------------|------------------------|
B ||------------------------|------------------------|
G ||-------7-------7-----7--|-------6-------6-----6--|
D ||------------------------|------------------------|
A ||--5-5-----5-5-----5-----|--5-5-----5-5-----5-----|
E ||------------------------|------------------------|
              Y allí va

|------------------------|------------------------||
|------------------------|------------------------||
|-------4-------4-----4--|-------6-------6-----6--||
|------------------------|------------------------||
|--5-5-----5-5-----5-----|--5-5-----5-5-----5-----||
|------------------------|------------------------||
   siempre soñando,         siempre imaginando.

E ||------------------------|------------------------|
B ||------------------------|------------------------|
G ||-------7-------7-----7--|-------6-------6-----6--|
D ||------------------------|------------------------|
A ||--5-5-----5-5-----5-----|--5-5-----5-5-----5-----|
E ||------------------------|------------------------|
            Y allí está

|------------------------|------------------------||
|------------------------|------------------------||
|-------4-------4-----4--|-------6-------6-----6--||
|------------------------|------------------------||
|--5-5-----5-5-----5-----|--5-5-----5-5-----5-----||
|------------------------|------------------------||
  con sus ojos bien abiertos.

E ||------------------------|------------------------|
B ||------------------------|------------------------|
G ||-------7-------7-----7--|-------6-------6-----6--|
D ||------------------------|------------------------|
A ||--5-5-----5-5-----5-----|--5-5-----5-5-----5-----|
E ||------------------------|------------------------|
            Y así se está

|------------------------|------------------------||
|------------------------|------------------------||
|-------4-------4-----4--|-------6-------6-----6--||
|------------------------|------------------------||
|--5-5-----5-5-----5-----|--5-5-----5-5-----5-----||
|------------------------|------------------------||
   encerrada en su mundo: nadie te molesta.

E ||------------------------|------------------------|
B ||------------------------|------------------------|
G ||-------7-------7-----7--|-------6-------6-----6--|
D ||------------------------|------------------------|
A ||--5-5-----5-5-----5-----|--5-5-----5-5-----5-----|
E ||------------------------|------------------------|
           ¿Dónde estás?

|------------------------||
|------------------------||
|-------4-------4-----4--||
|------------------------||
|--5-5-----5-5-----5-----||
|------------------------||  La
   ¡Que  sigo   persiguiéndote!


LA              SIm
    No me dejes en el olvido,

DO                 SOL   DO-SOL
dame otra oportunidad.

LA         SIm
    Enséñame el camino,

DO
llévame a ese lugar...


CORO

RE              LA       SIm        SOL
      ¿Dónde está mi princesa de seda? (donde?)

RE           LA       SIm        SOL
      ¿Dónde va mi peligro provocante?

RE              LA              SIm          SOL
      ¡Te pido por favor! ¿Por qué no me respondes?

RE              LA        SOL     RE
      ¿Dónde estás mi princesa de seda?


RE          LA     SOL                  LA
   Y aquí esta, domina mi mente como me mira.

RE            LA           SOL              LA
   Y si no es suficiente: ¡Sigo persiguiéndote!


LA              SIm
    No me dejes en el olvido,

DO               SOL      DO-SOL
dame otra oportunidad.

LA        SIm
    Enséñame el camino,

DO
llévame a ese lugar...


CORO

Donde estás mi princesa de Ceda....
Suggest correction
Creating personal tab
Creating personal tab
You can edit any tab online and save it as your Personal.

You can edit, replace or remove any tab part or add personal notes – all changes will be seen only by you.

Personal tabs can be accessed anytime from any device, even offline.
Learn more »
Give kudos to tab author, rate the tab!
1 2 3 4 5
comments
print report bad tab
guest
Wanna post a correction for this tab? Suggest correction