Oops, an error
Loading. Please wait.

Con Piedras, Palos Y Flores tab

20 views 1 this week
no commentswrite comment
1 2 3 4 5
3 more votes to show rating
add to favorites
×
Save as Personal and add changes to this tab that will be seen only by you. Learn more ›
×
You can save this tab as Personal to edit and correct it or add notes. All changes will be seen only by you. Learn more »
launch autoscroll
font size
0
reset
how to read this tab
guitar tuner
edit
Autoscroll
slow
fast
+/-
esc
set tempo
stop
?...no tenemos misiles, no tenemos tanques, no tenemos jets, no
tenemos nada caquero, lo único que tenemos son estas piedras,
palos y flores...? ?Omar Méndez, Garra Chapina 2004.

Intro.

e-----------------------------------------------------------------
B-----------------------------------------------------------------
G-----------------------------------------------------------------
D-9-xx-9-xx-9-x-9-xx-9-xx-9-x-9-xx-9-xx-9-x-9-xx-9-xx-9-x-9-------
A-9-xx-9-xx-9-x-9-xx-9-xx-9-x-9-xx-9-xx-9-x-9-xx-9-xx-9-x-9-------
E-6-xx-6-xx-6-x-6-xx-6-xx-6-x-6-xx-6-xx-6-x-6-xx-6-xx-6-x-6-------

e-----------------------------------------------------------------
B------6-----7----------------------------------------------------
G-----------------------6----------------------------6------------
D---9-----9------9------------9-------9------9------------9-------
A?6-----6------6-----6------------6--------6------6---------------
E------------7-----7-------7-------------7------7-------7---------

Verso.

e-----------------------------------------------------------------
B------6-----7----------------------------------------------------
G-----------------------6----------------------------6------------
D---9-----9------9------------9-------9------9------------9---(x2)
A?6-----6------6-----6------------6--------6------6---------------
E------------7-----7-------7-------------7------7-------7---------

e-----------------------------------------------------------------
B-----------------------------------------------------------------
G-----------------------------------------------------------------
D-8-xx-8-xx-8-x-9-xx-9-xx-9-x-8-xx-8-xx-8-x-9-xx-9-xx-9-x---------
A-8-xx-8-xx-8-x-9-xx-9-xx-9-x-8-xx-8-xx-8-x-9-xx-9-xx-9-x---------
E-6-xx-6-xx-6-x-7-xx-7-xx-7-x-6-xx-6-xx-6-x-7-xx-7-xx-7-x---------

e-----------------------------------------------------------------
B------6-----7----------------------------------------------------
G-----------------------6----------------------------6------------
D---9-----9------9------------9-------9------9------------9---(x2)
A?6-----6------6-----6------------6--------6------6---------------
E------------7-----7-------7-------------7------7-------7---------

e-----------------------------------------------------------------
B-----------------------------------------------------------------
G-----------------------------------------------------------------
D-8-xx-8-xx-8-x-9-xx-9-xx-9-x-8-xx-8-xx-8-x-9-xx-9-xx-9-x---------
A-8-xx-8-xx-8-x-9-xx-9-xx-9-x-8-xx-8-xx-8-x-9-xx-9-xx-9-x---------
E-6-xx-6-xx-6-x-7-xx-7-xx-7-x-6-xx-6-xx-6-x-7-xx-7-xx-7-x---------

Pre-Coro.

e-----------------------------------------------------------------
B-7---7---7---7---6---6---6---6---7---7---7---7---6---6---6---6--7
G-----------------------------------------------------------------
D---8---8---8---8---8---8---8---8---8---8---8---8---8---8---8---8-
A-----------------------------------------------------------------
E-----------------------------------------------------------------


Coro.

e----------------------------------------------------------------------
B----------------------------------------------------------------------
G----------------------------------------------------------------------
D-8--8-8-8-8-8-8888/9--9-9-9-9-9-9999\3--3-3-3-3-3-3333/4--4444/6-6666/
A-8--8-8-8-8-8-8888/9--9-9-9-9-9-9999\3--3-3-3-3-3-3333/4--4444/6-6666/
E-6--6-6-6-6-6-6666/7--7-7-7-7-7-7777\1--1-1-1-1-1-1111/2--2222/4-4444/

e-----------------------------------------------------------------
B-----------------------------------------------------------------
G-----------------------------------------------------------------
D-8-xx-8-xx-8-x-9-xx-9-xx-9-x-8-xx-8-xx-8-x-9-xx-9-xx-9-x-8-------
A-8-xx-8-xx-8-x-9-xx-9-xx-9-x-8-xx-8-xx-8-x-9-xx-9-xx-9-x-8-------
E-6-xx-6-xx-6-x-7-xx-7-xx-7-x-6-xx-6-xx-6-x-7-xx-7-xx-7-x-6-------

Verso.

e-----------------------------------------------------------------
B------6-----7----------------------------------------------------
G-----------------------6----------------------------6------------
D---9-----9------9------------9-------9------9------------9---(x2)
A?6-----6------6-----6------------6--------6------6---------------
E------------7-----7-------7-------------7------7-------7---------

e-----------------------------------------------------------------
B-----------------------------------------------------------------
G-----------------------------------------------------------------
D-8-xx-8-xx-8-x-9-xx-9-xx-9-x-8-xx-8-xx-8-x-9-xx-9-xx-9-x---------
A-8-xx-8-xx-8-x-9-xx-9-xx-9-x-8-xx-8-xx-8-x-9-xx-9-xx-9-x---------
E-6-xx-6-xx-6-x-7-xx-7-xx-7-x-6-xx-6-xx-6-x-7-xx-7-xx-7-x---------

Pre-Coro.

e-----------------------------------------------------------------
B-7---7---7---7---6---6---6---6---7---7---7---7---6---6---6---6--7
G-----------------------------------------------------------------
D---8---8---8---8---8---8---8---8---8---8---8---8---8---8---8---8-
A-----------------------------------------------------------------
E-----------------------------------------------------------------

Coro.

e----------------------------------------------------------------------
B----------------------------------------------------------------------
G----------------------------------------------------------------------
D-8--8-8-8-8-8-8888/9--9-9-9-9-9-9999\3--3-3-3-3-3-3333/4--4444/6-6666/
A-8--8-8-8-8-8-8888/9--9-9-9-9-9-9999\3--3-3-3-3-3-3333/4--4444/6-6666/
E-6--6-6-6-6-6-6666/7--7-7-7-7-7-7777\1--1-1-1-1-1-1111/2--2222/4-4444/


e-----------------------------------------------------------------
B-----------------------------------------------------------------
G-----------------------------------------------------------------
D-9-xx-9-xx-9-x-9-xx-9-xx-9-x-9-xx-9-xx-9-x-9-xx-9-xx-9-x-9-------
A-9-xx-9-xx-9-x-9-xx-9-xx-9-x-9-xx-9-xx-9-x-9-xx-9-xx-9-x-9-------
E-6-xx-6-xx-6-x-6-xx-6-xx-6-x-6-xx-6-xx-6-x-6-xx-6-xx-6-x-6-------

Después del silencio sigue esto...

e-----------------------------------------------------------------
B-----------------------------------------------------------------
G-----------------------------------------------------------------
D-8-xx-8-xx-8-x-9-xx-9-xx-9-x-8-----------------------------------
A-8-xx-8-xx-8-x-9-xx-9-xx-9-x-8-----------------------------------
E-6-xx-6-xx-6-x-7-xx-7-xx-7-x-6-----------------------------------

Creo que esto lo toca el bajo pero no importa porque sale en la
guitarra. Se toca rápido.

e-----------------------------------------------------------------
B-----------------------------------------------------------------
G-----------------------------------------------------------------
D----8---8------8----9-----9-----9--------------------------------
A------8---8------8----9-----9-----9------------------------------
E-6----------6-----------7-----7----------------------------------

e-----------------------------------------------------------------
B-----------------------------------------------------------------
G-----------------------------------------------------------------
D-8-xx-8-xx-8-x-9-xx-9-xx-9-x-8-xx-8-xx-8-x-9-xx-9-xx-9-x---------
A-8-xx-8-xx-8-x-9-xx-9-xx-9-x-8-xx-8-xx-8-x-9-xx-9-xx-9-x---------
E-6-xx-6-xx-6-x-7-xx-7-xx-7-x-6-xx-6-xx-6-x-7-xx-7-xx-7-x---------

e-----------------------------------------------------------------
B-----------------------------------------------------------------
G-----------------------------------------------------------------
D-8-xx-8-xx-8-x-9-xx-9-xx-9-x-8-xx-8-xx-8-x-9-xx-9-x-9-9----------
A-8-xx-8-xx-8-x-9-xx-9-xx-9-x-8-xx-8-xx-8-x-9-xx-9-x-9-9----------
E-6-xx-6-xx-6-x-7-xx-7-xx-7-x-6-xx-6-xx-6-x-7-xx-7-x-7-7----------

Esto se toca tres veces...

e-----------------------------------------------------------------
B-----------------------------------------------------------------
G-----------------------------------------------------------------
D-5-xx-5-xx-5-x-6-------------------------------------------------
A-5-xx-5-xx-5-x-6-------------------------------------------------
E-4-xx-4-xx-4-x-3-------------------------------------------------
                pm

Y a la cuarta se toca esto...

e-----------------------------------------------------------------
B-----------------------------------------------------------------
G-----------------------------------------------------------------
D-6-xx-6-xx-6-x-5-5-5-6-6-6/--------------------------------------
A-6-xx-6-xx-6-x-5-5-5-6-6-6/--------------------------------------
E-4-xx-4-xx-4-x-3-3-3-4-4-4/--------------------------------------

e-----------------------------------------------------------------
B-----------------------------------------------------------------
G-----------------------------------------------------------------
D-----------------------------------------------------------------
A----8---9-----------8---9---------8--------9--------8--------9---
E-6-------------6---------------6---------7--------6--------7-----

e-----------------------------------------------------------------
B-----------------------------------------------------------------
G-----------------------------------------------------------------
D-8--8-8-8-8-8-8888/9--9-9-9-9-9-9999\3--3-3-3-3-3-3333/4--4444/6-
A-8--8-8-8-8-8-8888/9--9-9-9-9-9-9999\3--3-3-3-3-3-3333/4--4444/6-
E-6--6-6-6-6-6-6666/7--7-7-7-7-7-7777\1--1-1-1-1-1-1111/2--2222/4-

Coro.

e----------------------------------------------------------------------
B----------------------------------------------------------------------
G----------------------------------------------------------------------
D-8--8-8-8-8-8-8888/9--9-9-9-9-9-9999\3--3-3-3-3-3-3333/4--4444/6-6666/
A-8--8-8-8-8-8-8888/9--9-9-9-9-9-9999\3--3-3-3-3-3-3333/4--4444/6-6666/
E-6--6-6-6-6-6-6666/7--7-7-7-7-7-7777\1--1-1-1-1-1-1111/2--2222/4-4444/

Outro.

e--------------------------   e-----------------------------------
B-7-xx-6-xx-6-xx-4 (x4)----   B-----------------------------------
G--------------------------   G-----------------------------------
D--------------------------   D-----------------------------------
A--------------------------   A-9-xx-8-xx-8-xx-6-xx-6-x-6-x-6-----
E--------------------------   E-----------------------------------

Bueno pues eso es todo, no creo que este totalmente correcta, si tienen
dudas o comentarios me escriben... Ah! y si le encuentran algún error
pues también. (seguro tiene muchos)

            
            
Suggest correction
Creating personal tab
Creating personal tab
You can edit any tab online and save it as your Personal.

You can edit, replace or remove any tab part or add personal notes – all changes will be seen only by you.

Personal tabs can be accessed anytime from any device, even offline.
Learn more »
Give kudos to tab author, rate the tab!
1 2 3 4 5
comments
print report bad tab
guest
Wanna post a correction for this tab? Suggest correction