Oops, an error
Loading. Please wait.

El Sol Dice tab

29 views 1 this week
no commentswrite comment
1 2 3 4 5
3 more votes to show rating
add to favorites
×
Save as Personal and add changes to this tab that will be seen only by you. Learn more ›
×
You can save this tab as Personal to edit and correct it or add notes. All changes will be seen only by you. Learn more »
launch autoscroll
font size
0
reset
how to read this tab
guitar tuner
edit
Autoscroll
slow
fast
+/-
esc
set tempo
stop
Bueno mucha, aqui tienen... Espero que les sirva
aunque sea para darse una idea de como va la rola!!

Intro.

Esto se toca como cuatro veces y después...

e-----------------------------------
B-----7--------------4--------------
G---6---6---6---6------6----6-------
D-4-------4---4---4------4----------
A-----------------------------------
E-----------------------------------

sigue esto:

e-----------------------------------
B-----7--------------4--------------
G---6---6---6---6------6----6-------
D-4-------4---4---4------4----------
A-----------------------------------
E-----------------------------------


Verso. (varias veces)

Hoy va a estallar una bomba en el corazón...

e-----------------------------------
B-----7--------------4--------------
G---6---6---6---6------6----6-------
D-4-------4---4---4------4----------
A-----------------------------------
E-----------------------------------

e---------------------------------------------
B---------------------------------------------
G---------------------------------------------
D-9-9-9-x-8--8/(9)-4--4-4---9-9-9-x-8-(8)-4---
A-9-9-9-x-8--8/(9)-4--4-4---9-9-9-x-8-(8)-4---
E-7-7-7-x-6--6/(7)-2--2-2---7-7-7-x-6-(6)-2---

Verso.

Con delfines voy, en la olas a jugar...

e-----------------------------------
B-----7-------------7---------------
G---6---6---6-----6---6---6---------
D-4-------4-----4-------4-----------
A-----------------------------------
E-----------------------------------

e-----------------------------------------------------
B-----------------------------------------------------
G-----------------------------------------------------
D-9-9-9-x-8--8/(9)-4--4-4---9-xx-8-xx-6---8-8-9-4-----
A-9-9-9-x-8--8/(9)-4--4-4---9-xx-8-xx-6---8-8-9-4-----
E-7-7-7-x-6--6/(7)-2--2-2---7-xx-6-xx-4---6-6-7-2-----

Verso.

Si aprendo a volar desde arriba te vo?a cuidar...

e-----------------------------------
B-----7-------------7---------------
G---6---6---6-----6---6---6---------
D-4-------4-----4-------4-----------
A-----------------------------------
E-----------------------------------

Verso. (distorsión)

e-----------------------------------------------
B-----------------------------------------------
G-----------------------------------------------
D-4-xx-4-x-4-x-4-xx-4-xx-4-xx-4-x-4-x-4-xx-4-xx-
A-4-xx-4-x-4-x-4-xx-4-xx-4-xx-4-x-4-x-4-xx-4-xx-
E-2-xx-2-x-2-x-2-xx-2-xx-2-xx-2-x-2-x-2-xx-2-xx-

e-----------------------------------------------------------
B-----------------------------------------------------------
G-----------------------------------------------------------
D-9-xx-8-xx-9---9-xx-8-xx-6--8-8-9-4---9-xx-8-xx-6--8-8-9-4-
A-9-xx-8-xx-9---9-xx-8-xx-6--8-8-9-4---9-xx-8-xx-6--8-8-9-4-
E-7-xx-6-xx-7---7-xx-6-xx-4--6-6-7-2---7-xx-6-xx-4--6-6-7-2-

Verso.

Desde el vientre hasta el final...

e-----------------------------------
B-----7--------------4--------------
G---6---6---6---6------6----6-------
D-4-------4---4---4------4----------
A-----------------------------------
E-----------------------------------

Coro.

e--------------------------------------------------
B--------------------------------------------------
G--------------------------------------------------
D-(4-xx-4-x-4-x-4-xx-4-xx-)*2--9-9-9-x-8-8--4-4-4--
A-(4-xx-4-x-4-x-4-xx-4-xx-)*2--9-9-9-x-8-8--4-4-4--
E-(2-xx-2-x-2-x-2-xx-2-xx-)*2--7-7-7-x-6-6--2-2-2--

Se toca esto hasta que termina la canción:

e-----------------------------------------------
B-----------------------------------------------
G-----------------------------------------------
D-4-xx-4-x-4--4------4--------------------------
A-4-xx-4-x-4----4-------------------------------
E-2-xx-2-x-2------2-----------------------------
Suggest correction
Creating personal tab
Creating personal tab
You can edit any tab online and save it as your Personal.

You can edit, replace or remove any tab part or add personal notes – all changes will be seen only by you.

Personal tabs can be accessed anytime from any device, even offline.
Learn more »
Give kudos to tab author, rate the tab!
1 2 3 4 5
comments
print report bad tab
guest
Wanna post a correction for this tab? Suggest correction