Oops, an error
Loading. Please wait.

Invisible bass

3 views 1 this week
no commentswrite comment
1 2 3 4 5
3 more votes to show rating
add to favorites
×
Save as Personal and add changes to this tab that will be seen only by you. Learn more ›
×
You can save this tab as Personal to edit and correct it or add notes. All changes will be seen only by you. Learn more »
launch autoscroll
font size
0
reset
guitar tuner
edit
Autoscroll
slow
fast
+/-
esc
set tempo
stop
AQUI LES VA EL BAJO..HOGALA LES SALGA IGUAL QUE ESPADEROS....


G|-----------------------------------
D|-----------------------------------
A|--7---7-7--7--7---7--7--7-7--------
E|-----------------------------------

G|-----------------------------------
D|-----------------------------------
A|--7---7-7--7--7---7--7--7-7--------
E|-----------------------------------

Aquí entra la batería..  


     Ya estoy pensando de nuevo
     En acariciarte los dedos
    
RIFF1
G|-----------------------------------       
D|-----------------------------------        2 VECES  
A|--7---7-7--7--7---7--7--7-7--------           
E|-----------------------------------            

     no piensas que me arrepiento
     
RIFF2
G|-----------------------------------       
D|-----------------------------------          
A|----5---5-------7---7------------                   
E|--3---3-------5---5--------------   


........RIFF1

........RIFF2   AUNQUE SE QUE NO TE TENGO

........RIFF1


AQUI SE CALLA TODO Y EL BAJO, HACE UN SU LLEGE...

tenes que hagar duro la cuerda para que se escuche igual...

G|--7-7--9------------------------------       
D|--------------------------------------          
A|--------------------------------------           
E|--------------------------------------           
......RIFF1

......RIFF1 (2)VECES   Ya no me voy a dejar
                        ni me interesa sangrar
    

......RIFF2 (2) VECES  no me arrepiento hacia el olvido 
                       no quiero estar tan vacio 


         
Ahora biene la parte del coro..


......RIFF3 
G|-------------------------------------------------------------
D|---------------------------------10-8------------------------
A|--7-7-7-7-8-7-7-7-7-8-7-7-7-7-8---------10-8-----------------   
E|-------------------------------------------------0-0-0-0-0---
          siento que no estoy
          que ya no me vez
          que soy invi-----
           --sible
           esta vez te vas..
           y ya no volvez
           yo invi-----
           --sible                              
                                                      
AQUI PARA TODO, Y LUEGO SIGUE DE NUEVO

.....RIFF1

.....RIFF1 (2) VECES  El miedo es lo que me aterra   
                      Dentro de mi hay una guerra
         
.....RIFF2 (2) VECES  Ya me da igual si me peirdo 
                      Aunque esta vez no escaparas 


coro..


Aqui se calla la guitarras, y solo se queda el bajo y la bateria...


G|----9----9----9----9----9----7----7-----7-----7-----5-----5-----3-----3---    
D|----9----9----9----9----9----7----7-----7-----7-----5-----5-----3-----3--- 
A|--7-----7----7----7----7----5----5-----5-----5-----3-----3-----1-----1-----   
E|--------------------------------------------------------------------------- 

   Ay un lugar del que no te puedo hablar y si me das la espalda no te puedo rescatar 
   de aqui..
   huuuuuuu nooooo, ohh de aqui. 
   lo que yo soy me hace falta, lo que yo doy me hace falta 
   siento que no estoy que ya no me vez que soy invisible esta vez te vaz y ya no volvez
   yo invisible..


coro....

.....RIFF1

FIN DE LA CANCION OJALA ALLA SIDO DE SU AGRADO...YA SABEN SI QUIEREN ESCRIBIRME
SUMERIA@
Suggest correction
Creating personal tab
Creating personal tab
You can edit any tab online and save it as your Personal.

You can edit, replace or remove any tab part or add personal notes – all changes will be seen only by you.

Personal tabs can be accessed anytime from any device, even offline.
Learn more »
Give kudos to tab author, rate the tab!
1 2 3 4 5
comments
print report bad tab
guest
Wanna post a correction for this tab? Suggest correction