Oops, an error
Loading. Please wait.

Lejos Del Suelo tab

17 views 1 this week
no commentswrite comment
1 2 3 4 5
3 more votes to show rating
add to favorites
×
Save as Personal and add changes to this tab that will be seen only by you. Learn more ›
×
You can save this tab as Personal to edit and correct it or add notes. All changes will be seen only by you. Learn more »
launch autoscroll
font size
0
reset
how to read this tab
guitar tuner
edit
Autoscroll
slow
fast
+/-
esc
set tempo
stop
Para mi que el intro de la otra tablatura esta malo, 
por eso les pongo este junto con el solo para que ya 
lo puedan tocar como es!!!

e|-15-15---12-12-----------------------------------------
B|-15-15---12-12---15-15---12-12---13--------------------
G|-----------------14-14---12-12---12--------------------
D|-------------------------------------------------------
A|-------------------------------------------------------
E|-------------------------------------------------------

La letra no se las pongo porque ya la tienen ahí pero les
doy el solo que esta mero fácil... si no les sale es porque
necesitan practicar mas... ja ja ja

    *                *
e|-15b-12--------15-15b-12---------12-12-----------------
B|----------15---------------15-----------15-14-15-------
G|-------------------------------------------------------
D|-------------------------------------------------------
A|-------------------------------------------------------
E|-------------------------------------------------------

e|-----------------------12---------14---------15--------
B|-12-14-12-12-15-12-12------12-12------12-12------------
G|-------------------------------------------------------
D|-------------------------------------------------------
A|-------------------------------------------------------
E|-------------------------------------------------------

    *                *
e|-15b-12--------15-15b-15/17b---------------------------
B|----------15------------------15-17-15-14-15-----------
G|-------------------------------------------------------
D|-------------------------------------------------------
A|-------------------------------------------------------
E|-------------------------------------------------------

e|-------------------------------------------------------
B|-17-17-15-13-15-13-12-13-12-10-12-10-8-10-8-7----------
G|-------------------------------------------------------
D|-------------------------------------------------------
A|-------------------------------------------------------
E|-------------------------------------------------------

*Nota: en los ?bend?s? que están en el traste 15 de la
primera cuerda tenés que subir la cuerda y después la bajas
a su lugar de un solo toque, no vayas a tocar dos veces la
cuerda porque no te va a salir igual!!!

            
            
Suggest correction
Creating personal tab
Creating personal tab
You can edit any tab online and save it as your Personal.

You can edit, replace or remove any tab part or add personal notes – all changes will be seen only by you.

Personal tabs can be accessed anytime from any device, even offline.
Learn more »
Give kudos to tab author, rate the tab!
1 2 3 4 5
comments
print report bad tab
guest
Wanna post a correction for this tab? Suggest correction