Oops, an error
Loading. Please wait.

Miel tab

version 2
version 2

Whole song

15 views 1 this week
no commentswrite comment
1 2 3 4 5
3 more votes to show rating
add to favorites
×
Save as Personal and add changes to this tab that will be seen only by you. Learn more ›
×
You can save this tab as Personal to edit and correct it or add notes. All changes will be seen only by you. Learn more »
launch autoscroll
font size
0
reset
how to read this tab
guitar tuner
edit
Autoscroll
slow
fast
+/-
esc
set tempo
stop
Que onda mucha, esta es la rola miel de VIERNES VERDE,
me atreví a mandarla, creo que se escucha bien pero ustedes dirán,
bueno parte del intro y el solo se lo copie a la otra tab.
Solo aclaro para que no haya problema.

Intro 2 veces

e-----------------------------------------------------------------
B-----------------------------------------------------------------
G--------------------------------------------------3--------------
D-----9p10-9-9p10-9~9~9~~~-----9p10-9-9p10-9~9~9~~~--5------------
A-0-0----------------------0-0-------------------------6----------
E-----------------------------------------------------------------

e---------------------------------------------------------------
B------------------7--7-7-7-7-7-5h7p5-----5--5-5-5h7-5-5-5------
G---6-6---6---6-6----------------------6--------------------8-8-
D-5-5-5-5-5-5-5-5-----------------------------------------------
A-6-6-6-6-6-6-6-6-----------------------------------------------
E---------------------------------------------------------------
    pm  pm    pm  pm

e-----------------------------------------------------------------
B------9--9-9-9-9/11--11-11-11-9----------------------------------
G-8-8-------------------------------------------------------------
D-----------------------------------------------------------------
A-----------------------------------------------------------------
E-----------------------------------------------------------------

Am     E
Ouou?Ya en si
Am                  E
Corta una flor y fuma un poco más
F                      G
Siente la grama en sus pies
E
Y da a la noche una gran sonrisa

Am
Dime que ya no puedes
E
Después de tanto tiempo
F
Calma tus fantasmas
G
Deja de correr
E                 Am
Solo has de beber su miel

e-----------------------------------------------------------------
B-----------------------------------------------------------------
G--------------------------------------------------3--------------
D-----9p10-9-9p10-9~9~9~~~-----9p10-9-9p10-9~9~9~~~--5------------
A-0-0----------------------0-0-------------------------6----------
E-----------------------------------------------------------------

e----------------------
B----------------------
G---6-6---6---6-6---6--
D-5-5-5-5-5-5-5-5-5-5--
A-6-6-6-6-6-6-6-6-6-6--
E----------------------

Am         E
Ouo?ya relájate
Am                 E
Metete al mar y déjate llevar
F                  G
Abajo el agua sigue azul
E
Recuerda que a ella jamás la vas a cambiar


Am
Dime que ya no puedes
E
Después de tanto tiempo
F
Calma tus fantasmas
G
Deja de correr
E                  Am
Solo has de beber su miel

Solo

e-----------------------------------------------------------------
B-----------------------------------------------------------------
G-----------------------------------------------------------------
D-6-------4-----2--2-2/4-2-4-2--2--2-2-4-2-6-4-8-6-9-8/11-11-11/13
A-----6------4----------------------------------------------------
E-----------------------------------------------------------------

e-----------------------------------------------------------------
B-----------------------------------------------------------------
G-----------------------------------------------------------------
D-13-13-13-11-11-11-11----9-9-9-9-8-8-8-8h9p8-8-------------------
A----------------------11-----------------------11-9-11----9------
E-------------------------------------------------------11---11-11

e-(9h11-11)*4------------(9h11-11)*4--------9-----9---------------
B----------------9h11p9-----------------11-----11---11-11--11--9--
G-----------------------------------------------------------------
D-----------------------------------------------------------------
A-----------------------------------------------------------------
E-----------------------------------------------------------------


Am
Dime que ya no puedes
E
Después de tanto tiempo
F
Calma tus fantasmas
G
Deja de correr
E                 A 
Solo has de beber su miel

Final

Varias veces:

e---------------------------
B---------------------------
G---------------------------
D-----9p10-9-9p10-9~~~------
A-0-0-----------------------
E---------------------------

Eso es todo amigos, cualquier comentario es bien recibido a
samy_10121@ las otras rolas que he mandado son
Selene de la Tona,el regalito de los Malacates y el sol dice de Viernes.

            
            
Suggest correction
Creating personal tab
Creating personal tab
You can edit any tab online and save it as your Personal.

You can edit, replace or remove any tab part or add personal notes – all changes will be seen only by you.

Personal tabs can be accessed anytime from any device, even offline.
Learn more »
Give kudos to tab author, rate the tab!
1 2 3 4 5
comments
print report bad tab
guest
Wanna post a correction for this tab? Suggest correction