Oops, an error
Loading. Please wait.

Requiem En E tab

version 1
version 1

Whole song

11 views 1 this week
no commentswrite comment
1 2 3 4 5
3 more votes to show rating
add to favorites
×
Save as Personal and add changes to this tab that will be seen only by you. Learn more ›
×
You can save this tab as Personal to edit and correct it or add notes. All changes will be seen only by you. Learn more »
launch autoscroll
font size
0
reset
how to read this tab
guitar tuner
edit
Autoscroll
slow
fast
+/-
esc
set tempo
stop
Solo hacia falta que alguien subiera esta rola
para que el archivo de Viernes estuviera completo
y aqui esta ya para todos ustedes...

Toda la canción se va con Drop D

   E5     G5
e||----------------------------------||
B||----------------------------------||
G||----------------------------------||
D||-2--2-2-5-2-2-5-2-2-5-2-2-5-2-2-5-||
A||-2--2-2-5-2-2-5-2-2-5-2-2-5-2-2-5-||
D||-2--2-2-5-2-2-5-2-2-5-2-2-5-2-2-5-||
                                   pm

e||----------------||----------------||
B||----------------||----------------||
G||---12------16---||---16------12---||
D||----------------||-------12-------||
A||----------------||----------------||
D||----------------||----------------||


e||----------------||----------------||
B||----------------||----------------||
G||---12---16------||--12h16p12------||
D||-----------12---||-----------12---||
A||----------------||----------------||
D||----------------||----------------||

e||-7h9-10-10-10-10-10-7h9||-10/12-10-9-9h10--||
B||-----------------------||------------------||
G||-----------------------||------------------||
D||-----------------------||------------------||
A||-----------------------||------------------||
D||-----------------------||------------------||

e||-7h9-10-10-10-10-10-7h9-15-15-15-15\-||
B||-------------------------------------||
G||-------------------------------------||
D||-------------------------------------||
A||-------------------------------------||
D||-------------------------------------||

Esto lo tocas en versos, va con wah-wah.

    B5    C5
e||----------------||
B||----------------||
G||----------------||
D||--9h10--10------||
A||--9h10--10------||
D||--9h10--10------||


Me cuesta tanto creer,
Que en mi tierra sean así,
Que no sepan lo que hay aquí.

Y no quiero ni pensar,
Que un chapín me va a traicionar,
Solo porque no cree en mi.

e||-10-10h12-12-12h13-13-13/15-15\13\12-||
B||-------------------------------------||
G||-------------------------------------||
D||-------------------------------------||
A||-------------------------------------||
D||-------------------------------------||

e||-/5/10-10/17-17/19-19-19h20-20-20h21-||
B||-------------------------------------||
G||-------------------------------------||
D||-------------------------------------||
A||-------------------------------------||
D||-------------------------------------||

    B5     C5
e||----------------||
B||----------------||
G||----------------||
D||--9-----10------||
A||--9-----10------||
D||--9-----10------||

Es momento de gritar,
Que sepan que estamos aquí,
Y que nadie nos va a parar.

Y me basta con solo hablar,
Orgulloso de ser de aquí,
Y aquí es donde quiero morir.

Mira, escucha, siente,
Aun hay más...

   E5     G5
e||----------------------------------||
B||----------------------------------||
G||----------------------------------||
D||-2--2-2-5-2-2-5-2-2-5-2-2-5-2-2-5-||
A||-2--2-2-5-2-2-5-2-2-5-2-2-5-2-2-5-||
D||-2--2-2-5-2-2-5-2-2-5-2-2-5-2-2-5-||
                                   pm

Soy chapín de sangre,
Vas a respetarme,
Si no crees en mí,
Pélame la verga.

Soy chapín de sangre,
Vas a respetarme,
Si no crees en mí,
Come mucha mierda.

    B5    C5
e||----------------||
B||----------------||
G||----------------|| (con wah-wah)
D||--9h10--10------||
A||--9h10--10------||
D||--9h10--10------||

Es momento de empezar,
Esta guerra va a comenzar,
Y no tiene que terminar.

Y no quiero ni sospechar,
Que un chapín me va a traicionar,
Solo porque no cree en mi.


e||-10-10h12-12-12h13-13-13/15-15\13\12-||
B||-------------------------------------||
G||-------------------------------------||
D||-------------------------------------||
A||-------------------------------------||
D||-------------------------------------||

e||-/5/10-10/17-17/19-19-19h20-20-20h21-||
B||-------------------------------------||
G||-------------------------------------||
D||-------------------------------------||
A||-------------------------------------||
D||-------------------------------------||

Mira, escucha, siente,
Aun hay más...

   E5     G5
e||----------------------------------||
B||----------------------------------||
G||----------------------------------||
D||-2--2-2-5-2-2-5-2-2-5-2-2-5-2-2-5-||
A||-2--2-2-5-2-2-5-2-2-5-2-2-5-2-2-5-||
D||-2--2-2-5-2-2-5-2-2-5-2-2-5-2-2-5-||
                                   pm

Soy chapín de sangre,
Vas a respetarme,
Si no crees en mí,
Pélame la verga.

Soy chapín de sangre,
Vas a respetarme,
Si no crees en mí,
Come mucha mierda.

e||-------------------------------------||
B||-------------------------------------||
G||-------3-5---------------10-12--12\--||
D||-------------------10-12-------------||
A||-3-3-5------10-12--------------------||
D||-------------------------------------||

e||-------------------------------------||
B||-------------------------------------||
G||-------3-5-----(wah-wah--------------||
D||--------------3h5-5-3h5p3------------||
A||-3-3-5--------------------5p3h5p3----||
D||-------------------------------------||

e||-------------------------------------||
B||-------------3-5---------------------||
G||-------3-5---------------3-5----5\---||
D||--------------------------------5\---||
A||-3-3-5-------------3-3-5-------------||
D||-------------------------------------||

Todo esto con wah-wah

e||-------------------||----------------||
B||---(x3)------------||-(x2)-----------||
G||-------------10h12-||-12p10----------||
D||-------10h12-------||---------12p10--||
A||-10h12-------------||----------(x2)--||
D||-------------------||----------------||

e||--------------------||
B||--------------------||
G||-------3-5----5\3---||
D||--------------5\3---||
A||-3-3-5--------------||
D||--------------------||

No te quiero oír decir,
Que afuera todo es mejor,
Que no se puede comparar,
Es momento de sentir,
El orgullo de ser de aquí,
Que nadie te puede quitar

   E5     G5
e||----------------------------------||
B||----------------------------------||
G||----------------------------------||
D||-2--2-2-5-2-2-5-2-2-5-2-2-5-2-2-5-||
A||-2--2-2-5-2-2-5-2-2-5-2-2-5-2-2-5-||
D||-2--2-2-5-2-2-5-2-2-5-2-2-5-2-2-5-||
                                   pm

Soy chapín de sangre,
Vas a respetarme,
Si no crees en mí,
Pélame la verga.

Soy chapín de sangre,
Vas a respetarme,
Si no crees en mí,
Come mucha mierda.

    E       G
e||-------------------||
B||-------------------||
G||-------------------||
D||-2-2-2-2-5-5-5-5-5-||
A||-2-2-2-2-5-5-5-5-5-||
D||-2-2-2-2-5-5-5-5-5-||

SOY CHAPIN DE SANGRE,
SOY CHAPIN DE SANGRE,
SOY CHAPIN DE SANGRE...

En el tercer chapin de sangre tocas
el intro y asi termina todo, ojala que
les salga bien... hay algunas partes
donde seguro tengo errores, perdon, pero
estoy seguro de que ustedes pueden hacerle
los arreglos que crean que necesita...

            
            
Suggest correction
Creating personal tab
Creating personal tab
You can edit any tab online and save it as your Personal.

You can edit, replace or remove any tab part or add personal notes – all changes will be seen only by you.

Personal tabs can be accessed anytime from any device, even offline.
Learn more »
Give kudos to tab author, rate the tab!
1 2 3 4 5
comments
print report bad tab
guest
Wanna post a correction for this tab? Suggest correction