Oops, an error
Loading. Please wait.

Requiem En E bass

version 2
version 2

Whole song

17 views 1 this week
no commentswrite comment
1 2 3 4 5
3 more votes to show rating
add to favorites
×
Save as Personal and add changes to this tab that will be seen only by you. Learn more ›
×
You can save this tab as Personal to edit and correct it or add notes. All changes will be seen only by you. Learn more »
launch autoscroll
font size
0
reset
guitar tuner
edit
Autoscroll
slow
fast
+/-
esc
set tempo
stop
hay ciertos errores pero por cuestion del tiempo no los eh transcrito
todos pero espero subir un video a youtube para que les quede mas claro
cualquier duda escribanme al mi correo lcajas60@

<#> armónico
PD: en los coros los armonicos tambien se escuchan aunque solo mantienen
una nota en la primera vuelta es el armonico en el 7 trate cuerda G,
 en la segunda es en el 5to traste en G en la tercera vuelta 7mo
traste en G, y en la cuarta es en el 9no traste en la cuerda G

INTRO:
G|-------------------------------------------<7>-<5>
D|--------------------------------------------------
A|--------------------------------------------------
E|-3/123-0-0-0-3-0-0-3-0-0-3-0-0-3-0-0-3-----------

G|----------------------------------<9>-<7>-<5>
D|---------------------------------------------
A|---------------------------------------------
E|-0-0-0-3-0-0-3-0-0-3-0-0-3-0-0-3-------------

G|----------------------------------<5>-<9>-<7>
D|---------------------------------------------
A|---------------------------------------------
E|-0-0-0-3-0-0-3-0-0-3-0-0-3-0-0-3-------------

G|----------------------------------<9>--------
D|-------------------------------------<9>-----
A|---------------------------------------------
E|-0-0-0-3-0-0-3-0-0-3-0-0-3-0-0-3-------------


(Aquí es la segunda parte del Intro)
(También se utiliza en los versos)

G|-----------------------------------
D|------------8-10-10h8?-10h8--------
A|---------10----------10----10------
E|-3/8-8-8---------------------------

G|-------------------------------
D|---------8-10-10/12-10-8-------
A|------10-----------------------
E|--8-8--------------------------

G|-----------------------------------
D|--------8-10-10h8?-10h8--------
A|-----10----------10----10------
E|-8-8---------------------------

G|-----------------------
D|---------10------12----
A|-----------------------
E|-8-8-8-8----8/10-------

      Me cuesta tan...
G|-----------------------------------
D|------------8-10-10h8?-10h8--------
A|---------10----------10----10------
E|-3/8-8-8---------------------------

   ...to creer
G|-------------------------------
D|---------8-10-10/12-10-8-------
A|------10-----------------------
E|--8-8--------------------------

    Que en mi tierra sean así
G|-----------------------------------
D|--------8-10-10h8?-10h8--------
A|-----10----------10----10------
E|-8-8---------------------------

   que no sepan lo que hay aquí
G|-----------------------
D|---------10------12----
A|-----------------------
E|-8-8-8-8----8/10-------

(el siguiente verso es igual)
Y no quiero ni creer
Que un chapín me a traicionar
Sólo porque no cree en mí

Solo 1.

G|-----------------------
D|----------------------- (varias veces)
A|-----------------------
E|-6-6-6-6-6-6-8-8-8-8-8-

Verso:
Es momento de gritar
Que sepan que estamos aquí
Y que nadie nos va a parar
Verso:
Y no basta con solo hablar
Orgulloso de ser de aquí
Y aquí es donde quiero morir

(Aquí se acompaña como en el solo 1)
Mira, escucha, siente, aún hay más

(El coro se toca como en la primera parte
del Intro)
Soy chapín de sangre
Vas a respetarme
Si no crees en mí
Pelame la verga

Soy chapín de sangre
Vas a respetarme
Si no crees en mí
Come mucha mierda

(Aquí se toca como en la segunda parte del Intro)

Verso:
Es momento de empezar
Esta guerra va a comenzar
Y no tiene que terminar
Verso:
Y no quiero sospechar
Que un chapín me va a traicionar
Solo porque no cree en mí

Mira, escucha, siente, aún hay más

Coro:
Soy chapín de sangre
Vas a respetarme
Si no crees en mí
Pelame la verga

Soy chapín de sangre
Vas a respetarme
Si no crees en mí
Come mucha mierda

Solo2:

G|-------------------
D|--------8-10------- (varias veces)
A|-----10------------
E|-8-8---------8-8---


   No te quiero...
G|-----------------------------------
D|---------8-10-10h8?-10h8--------
A|------10----------10----10------
E|--8-8---------------------------

    ...oír decir...
G|-------------------------------
D|---------8-10-10/12-10-8-------
A|------10-----------------------
E|--8-8--------------------------

   ...que afuera todo es mejor...
G|-----------------------------------
D|--------8-10-10h8?-10h8--------
A|-----10----------10----10------
E|-8-8---------------------------

   ...que no se puede comparar.
G|-----------------------
D|---------10------12----
A|-----------------------
E|-8-8-8-8----8/10-------

   Es momento...
G|-----------------------------------
D|---------8-10-10h8?-10h8--------
A|------10----------10----10------
E|--8-8---------------------------

    ...de sentir...
G|-------------------------------
D|---------8-10-10/12-10-8-------
A|------10-----------------------
E|--8-8--------------------------
   ...el orgullo de ser de aquí...

G|-----------------------------------
D|--------8-10-10h8?-10h8--------
A|-----10----------10----10------
E|-8-8---------------------------
   ...que nadie te puede quitar.

G|----------------------------
D|-8/12-12-8-8-6-6------------
A|-----------------10-10------
E|-----------------------123-

Coro:
Soy chapín de sangre
Vas a respetarme
Si no crees en mí
Pelame la verga

Soy chapín de sangre
Vas a respetarme
Si no crees en mí
Come mucha mierda

G|-------------------
D|-------------------
A|------------------- (varias veces)
E|-0-0-0-0-3-3-3-3---

Soy chapín de sangre (varias veces)

(aquí termina como en el Intro)

Soy chapín de sangre.
E|-0-0-0-3-0-0-3-0-0-3-0-0-3-0-0-3----

            
            
Suggest correction
Creating personal tab
Creating personal tab
You can edit any tab online and save it as your Personal.

You can edit, replace or remove any tab part or add personal notes – all changes will be seen only by you.

Personal tabs can be accessed anytime from any device, even offline.
Learn more »
Give kudos to tab author, rate the tab!
1 2 3 4 5
comments
print report bad tab
guest
Wanna post a correction for this tab? Suggest correction