Oops, an error
Loading. Please wait.

Requiem En E tab

version 2
version 2

Whole song

30 views 3 this week
no commentswrite comment
1 2 3 4 5
3 more votes to show rating
add to favorites
×
Save as Personal and add changes to this tab that will be seen only by you. Learn more ›
×
You can save this tab as Personal to edit and correct it or add notes. All changes will be seen only by you. Learn more »
launch autoscroll
font size
0
reset
how to read this tab
guitar tuner
edit
Autoscroll
slow
fast
+/-
esc
set tempo
stop
q onda d nuevo para todos mis amogos rockeros
esta rola se la dedico a mis compas d banda
Nestor Y Pechan mucha no se olviden de su tierra
saludos a mis cuates de sanarate Jheremy, Javier
y todos los demas....... viva Guate

esta bien sencilla

Viernes Verde - Réquiem E

Intro: Esta parte se repite 4 veces
E||-------------------------------------||
B||-------------------------------------||
G||-------------------------------------||
D||-------------------------------------||
A||--2--2--5-2-2-5-2-2-5-2-2-5-2-2--5---||
E||--0--0--3-0-0-3-0-0-3-0-0-3-0-0--3---||

Luego se hace esto:
E||-----8----8---8---8---8---8---8-|----6--------11-11-11-10---8--||
B||-----8----8---8---8---8---8---8-|----5--------11-11-11-10---8--||
G||--x-----x-----------------------|------------------------------||
D||--x-----x-----------------------|------------------------------||
A||--------------------------------|------------------------------||
E||--------------------------------|------------------------------||

E||-----8----8---8---8---8---8---8-|----6--------15-15-15-15-15---||
B||-----8----8---8---8---8---8---8-|----5--------15-15-15-15-15---||
G||--x-----x-----------------------|------------------------------||
D||--x-----x-----------------------|------------------------------||
A||--------------------------------|------------------------------||
E||--------------------------------|------------------------------||

Verso: con whawha
     Me cuesta tanto creer...
E||--8----8----------------|--8----8----------------||
B||--8----8----x--x--x--x--|--8----8----x--x--x--x--||
G||------------x--x--x--x--|------------x--x--x--x--||
D||------------x--x--x--x--|------------x--x--x--x--||
A||------------------------|------------------------||
E||------------------------|------------------------||

(Todo se va así)
Que en mi tierra sean así que no sepan lo que hay aquí
Y no quiero ni pensar
Que un chapín me va a traicionar solo porque no cree en mí

Puente:(se acompaña de estas notas)
     D    E     F     G
E||------------------------||
B||------------------------||
G||--7----9----10----12----||
D||--7----9----10----12----||
A||------------------------||
E||------------------------||

E||---------------------|----------------------||
B||---------------------|----------------------||
G||--7--------7----9----|--L----9----10--------||
D||---------------------|----------------------||
A||---------------------|----------------------||
E||---------------------|----------------------||

E||------------------------|----------------10--||
B||------------------------|--------------------||
G||--10----12--------10----|--9----10s--12------||
D||------------------------|--------------------||
A||------------------------|--------------------||
E||------------------------|--------------------||

E||--10s--12--12--------12s--13--|--13--------13s--15--15--||
B||------------------------------|-------------------------||
G||------------------------------|-------------------------||
D||------------------------------|-------------------------||
A||------------------------------|-------------------------||
E||------------------------------|-------------------------||

Verso: con whawha
     Es momento de gritar...
E||--8----8----------------|--8----8----------------||
B||--8----8----x--x--x--x--|--8----8----x--x--x--x--||
G||------------x--x--x--x--|------------x--x--x--x--||
D||------------x--x--x--x--|------------x--x--x--x--||
A||------------------------|------------------------||
E||------------------------|------------------------||

(Todo se va así)
Que sepan que estamos aquí y que nadie nos va a parar

Y me vasta con solo hablar
Orgulloso de ser de aquí y aquí es donde quiero morir

(se acompaña de estas notas)
     D    E     F     G
E||------------------------||
B||------------------------||
G||--7----9----10----12----||
D||--7----9----10----12----||
A||------------------------||
E||------------------------||
   Mira...               escucha
E||---------------------|----------------------||
B||---------------------|----------------------||
G||--7--------7----9----|--L----9----10--------||
D||---------------------|----------------------||
A||---------------------|----------------------||
E||---------------------|----------------------||
                              Siente...
E||------------------------|----------------10--||
B||------------------------|--------------------||
G||--10----12--------10----|--9----10s--12------||
D||------------------------|--------------------||
A||------------------------|--------------------||
E||------------------------|--------------------||
     Aun hay más...
E||--10s--12--12--------12s--13--|--13--------13s--15--15--||
B||------------------------------|-------------------------||
G||------------------------------|-------------------------||
D||------------------------------|-------------------------||
A||------------------------------|-------------------------||
E||------------------------------|-------------------------||

Coro:
    Soy chapín de sangre                    vas a respetarme
E||-------------------------------------||
B||-------------------------------------||
G||-------------------------------------||
D||-------------------------------------||
A||--2--2--5-2-2-5-2-2-5-2-2-5-2-2--5---||
E||--0--0--3-0-0-3-0-0-3-0-0-3-0-0--3---||
    Si no crees en mi                       pélamela verga
E||-------------------------------------||
B||-------------------------------------||
G||-------------------------------------||
D||-------------------------------------||
A||--2--2--5-2-2-5-2-2-5-2-2-5-2-2--5---||
E||--0--0--3-0-0-3-0-0-3-0-0-3-0-0--3---||
    Soy chapín de sangre                    vas a respetarme
E||-------------------------------------||
B||-------------------------------------||
G||-------------------------------------||
D||-------------------------------------||
A||--2--2--5-2-2-5-2-2-5-2-2-5-2-2--5---||
E||--0--0--3-0-0-3-0-0-3-0-0-3-0-0--3---||
    Si no crees en mi                       come mucha mierda
E||-------------------------------------||
B||-------------------------------------||
G||-------------------------------------||
D||-------------------------------------||
A||--2--2--5-2-2-5-2-2-5-2-2-5-2-2--5---||
E||--0--0--3-0-0-3-0-0-3-0-0-3-0-0--3---||

Puente:
E||-----8----8---8---8---8---8---8-|----6--------11-11-11-10---8--||
B||-----8----8---8---8---8---8---8-|----5--------11-11-11-10---8--||
G||--x-----x-----------------------|------------------------------||
D||--x-----x-----------------------|------------------------------||
A||--------------------------------|------------------------------||
E||--------------------------------|------------------------------||

E||-----8----8---8---8---8---8---8-|----6--------15-15-15-15-15---||
B||-----8----8---8---8---8---8---8-|----5--------15-15-15-15-15---||
G||--x-----x-----------------------|------------------------------||
D||--x-----x-----------------------|------------------------------||
A||--------------------------------|------------------------------||
E||--------------------------------|------------------------------||

Verso: con whawha
     Es momento de empezar...
E||--8----8----------------|--8----8----------------||
B||--8----8----x--x--x--x--|--8----8----x--x--x--x--||
G||------------x--x--x--x--|------------x--x--x--x--||
D||------------x--x--x--x--|------------x--x--x--x--||
A||------------------------|------------------------||
E||------------------------|------------------------||

(Todo se va así)
Esta guerra va a comenzar y no tiene que terminar
Y no quiero ni sospechar
Que un chapín me va a traicionar solo porque no cree en mí

(Se acompaña de estas notas)
     D    E     F     G
E||------------------------||
B||------------------------||
G||--7----9----10----12----||
D||--7----9----10----12----||
A||------------------------||
E||------------------------||

   Mira...               escucha
E||---------------------|----------------------||
B||---------------------|----------------------||
G||--7--------7----9----|-------9----10--------||
D||---------------------|----------------------||
A||---------------------|----------------------||
E||---------------------|----------------------||
                              Siente...
E||------------------------|----------------10--||
B||------------------------|--------------------||
G||--10----12--------10----|--9----10---12------||
D||------------------------|--------------------||
A||------------------------|--------------------||
E||------------------------|--------------------||
     Aun hay más...
E||--10s--12--12--------12---13--|--13--------13s--15--15--||
B||------------------------------|-------------------------||
G||------------------------------|-------------------------||
D||------------------------------|-------------------------||
A||------------------------------|-------------------------||
E||------------------------------|-------------------------||

Coro:
    Soy chapín de sangre                    vas a respetarme
E||-------------------------------------||
B||-------------------------------------||
G||-------------------------------------||
D||-------------------------------------||
A||--2--2--5-2-2-5-2-2-5-2-2-5-2-2--5---||
E||--0--0--3-0-0-3-0-0-3-0-0-3-0-0--3---||
    Si no crees en mi                       pélamela verga
E||-------------------------------------||
B||-------------------------------------||
G||-------------------------------------||
D||-------------------------------------||
A||--2--2--5-2-2-5-2-2-5-2-2-5-2-2--5---||
E||--0--0--3-0-0-3-0-0-3-0-0-3-0-0--3---||
    Soy chapín de sangre                    vas a respetarme
E||-------------------------------------||
B||-------------------------------------||
G||-------------------------------------||
D||-------------------------------------||
A||--2--2--5-2-2-5-2-2-5-2-2-5-2-2--5---||
E||--0--0--3-0-0-3-0-0-3-0-0-3-0-0--3---||
    Si no crees en mi                       come mucha mierda
E||-------------------------------------||
B||-------------------------------------||
G||-------------------------------------||
D||-------------------------------------||
A||--2--2--5-2-2-5-2-2-5-2-2-5-2-2--5---||
E||--0--0--3-0-0-3-0-0-3-0-0-3-0-0--3---||

Solo: con whawha
(aquí va primero la guitarra 1 y seguido la guitarra 2)
(Primera guitarra)                  (Segunda guitarra)
E||---------------------------||    E||---------------------------||
B||---------------------------||    B||--------5--6-8--8/3--------||
G||------------3---5----------||    G||--5--7---------------------||
D||----------5----------------||    D||---------------------------||
A||--3---3--------------------||    A||---------------------------||
E||---------------------------||    E||---------------------------||

E||---------------------------||    E||--------------------------||
B||---------------------------||    B||--------------------------||
G||------------3---5----------||    G||--3/5----5/3--------------||
D||----------5----------------||    D||--------------5--3/5------||
A||--3---3--------------------||    A||---------------------3----||
E||---------------------------||    E||--------------------------||

E||---------------------------||    E||----------||
B||---------------------------||    B||-----5----||
G||------------3---5----------||    G||--7-------||
D||----------5----------------||    D||----------||
A||--3---3--------------------||    A||----------||
E||---------------------------||    E||----------||

E||---------------------------||    E||---8/2----||
B||---------------------------||    B||---8/2----||
G||------------3---5----------||    G||----------||
D||----------5----------------||    D||----------||
A||--3---3--------------------||    A||----------||
E||---------------------------||    E||----------||

Primera guitarra (En esta parte van juntas las dos guitarras)
E||---------------------------||
B||---------------------------||
G||------------3---5----------||
D||----------5----------------||
A||--3---3--------------------||
E||---------------------------||
Segunda guitarra
E||--------------------------------|----------------------------------||
B||------------6/8------------6/8--|------------6/8-8/6-7/6-----------||
G||-------5/7------------5/7-------|-------5/7---------------7/5-7/5--||
D||--5/7------------5/7------------|--5/7-----------------------------||
A||--------------------------------|----------------------------------||
E||--------------------------------|----------------------------------||
Primera guitarra
E||---------------------------||
B||---------------------------||
G||------------3---5----------||
D||----------5----------------||
A||--3---3--------------------||
E||---------------------------||
Segunda guitarra
E||--------------------------------|----------------------------------||
B||------------6/8------------6/8--|------------6/8-8/6-7/6-----------||
G||-------5/7------------5/7-------|-------5/7---------------7/5-7/5--||
D||--5/7------------5/7------------|--5/7-----------------------------||
A||--------------------------------|----------------------------------||
E||--------------------------------|----------------------------------||
Primera guitarra
E||---------------------------||
B||---------------------------||
G||------------3---5----------||
D||----------5----------------||
A||--3---3--------------------||
E||---------------------------||
Segunda guitarra
E||--8---8-----6---8----------||
B||----------8----------------||
G||---------------------------||
D||---------------------------||
A||---------------------------||
E||---------------------------||

Verso: (aquí solo va el bajo)
No te quiero oír decir
Que afuera todo es mejor que no se puede comparar
Es momento de sentir
El orgullo de ser de aquí que nadie te puede quitar

Coro:
    Soy chapín de sangre                    vas a respetarme
E||-------------------------------------||
B||-------------------------------------||
G||-------------------------------------||
D||-------------------------------------||
A||--2--2--5-2-2-5-2-2-5-2-2-5-2-2--5---||
E||--0--0--3-0-0-3-0-0-3-0-0-3-0-0--3---||
    Si no crees en mi                       pélamela verga
E||-------------------------------------||
B||-------------------------------------||
G||-------------------------------------||
D||-------------------------------------||
A||--2--2--5-2-2-5-2-2-5-2-2-5-2-2--5---||
E||--0--0--3-0-0-3-0-0-3-0-0-3-0-0--3---||
    Soy chapín de sangre                    vas a respetarme
E||-------------------------------------||
B||-------------------------------------||
G||-------------------------------------||
D||-------------------------------------||
A||--2--2--5-2-2-5-2-2-5-2-2-5-2-2--5---||
E||--0--0--3-0-0-3-0-0-3-0-0-3-0-0--3---||
    Si no crees en mi                       come mucha mierda
E||-------------------------------------||
B||-------------------------------------||
G||-------------------------------------||
D||-------------------------------------||
A||--2--2--5-2-2-5-2-2-5-2-2-5-2-2--5---||
E||--0--0--3-0-0-3-0-0-3-0-0-3-0-0--3---||

E||---------------------------|---------------------------||
B||---------------------------|---------------------------||
G||---------------------------|---------------------------||
D||---------------------------|---------------------------||
A||--2--2--2--2-5--5-5--5--5--|--2--2--2--2-5--5-5--5--5--||
E||--0--0--0--0-3--3-3--3--3--|--0--0--0--0-3--3-3--3--3--||

E||---------------------------|---------------------------||
B||---------------------------|---------------------------||
G||---------------------------|---------------------------||
D||---------------------------|---------------------------||
A||--2--2--2--2-5--5-5--5--5--|--2--2--2--2-5--5-5--5--5--||
E||--0--0--0--0-3--3-3--3--3--|--0--0--0--0-3--3-3--3--3--||

   Soy chapín de sangre
E||---------------------------|---------------------------||
B||---------------------------|---------------------------||
G||---------------------------|---------------------------||
D||---------------------------|---------------------------||
A||--2--2--2--2-5--5-5--5--5--|--2--2--2--2-5--5-5--5--5--||
E||--0--0--0--0-3--3-3--3--3--|--0--0--0--0-3--3-3--3--3--||


   Soy chapín de sangre
E||---------------------------|---------------------------||
B||---------------------------|---------------------------||
G||---------------------------|---------------------------||
D||---------------------------|---------------------------||
A||--2--2--2--2-5--5-5--5--5--|--2--2--2--2-5--5-5--5--5--||
E||--0--0--0--0-3--3-3--3--3--|--0--0--0--0-3--3-3--3--3--||
   Soy chapín de sangre
E||---------------------------|--------||
B||---------------------------|--------||
G||---------------------------|--------||  fin
D||---------------------------|--------||
A||--2--2--2--2-5--5-5--5--5--|--2-----||
E||--0--0--0--0-3--3-3--3--3--|--0-----||


dudas y correcciones a mi msn
edoardorock@

            
            
Suggest correction
Creating personal tab
Creating personal tab
You can edit any tab online and save it as your Personal.

You can edit, replace or remove any tab part or add personal notes – all changes will be seen only by you.

Personal tabs can be accessed anytime from any device, even offline.
Learn more »
Give kudos to tab author, rate the tab!
1 2 3 4 5
comments
print report bad tab
guest
Wanna post a correction for this tab? Suggest correction