Oops, an error
Loading. Please wait.

Super Dreamland 64 Tab

7 views 1 this week
no commentswrite comment
1 2 3 4 5
3 more votes to show rating
add to favorites
launch autoscroll
font size
0
reset
how to read this tab
guitar tuner
Autoscroll
slow
fast
+/-
esc
set tempo
stop
Help us to improve Ultimate-Guitar.com Take our survey!
×
Author
Difficulty
intermediate
Artist: Vigilante 8
Song: Super dreamland 64
Tabbed by: Geoff Pippin
Email: jorff2@hotmail.com
Tuning: Standard

[Riff 1]
e|---------------------------------------------------------------------------------------|
B|-----------------------------11--------------14-----11---------------------------------|
G|-----10/11--13------11\10/11----13p11--13--------13-----13--11--10--------------13~----|
D|--11----------------------------------------------------------------10--11--13---------|
A|---------------------------------------------------------------------------------------|
E|---------------------------------------------------------------------------------------|

e|----------------------------------------------------------------------------------------------------|
B|-----------------------------11--------------14--11-------------------------------------------------|
G|-----10/11--13------11\10/11----13p11--13-----------13-11-13p11\10-11p10----10----------------------|
D|--11---------------------------------------------------------------------13----13-11-10--13--11~----|
A|----------------------------------------------------------------------------------------------------|
E|----------------------------------------------------------------------------------------------------| x2

[Riff 2]
e|--18\-----------------------------------------------------------------------------------6-------|
B|--18\-------------------------------------------------------------------------------------------|
G|----------8----8h10----------------8------------------10-10--10-10h11p10-8h10p8-6h8p6-5---------|
D|--------8---11------11-8~----10-11---11-10-8-7-8-10~--------------------------------------8~----|
A|------------------------------------------------------------------------------------------------|
E|------------------------------------------------------------------------------------------------|

e|------------------------------|
B|------------------------------|
G|----------8----8-9-8-9-10~----|
D|--8-10-11---11----------------|
A|------------------------------|
E|------------------------------|

[Riff 3]
(basically riff 2, but higher)
e|-----11----11h13-----------------11---------------------13-13--13-13h14p13-11h13p11-9h11p9-8-18--------|
B|--11----14-------14-11~----13-14----14-13-11-10-11-13~------------------------------------------11~----|
G|-------------------------------------------------------------------------------------------------------|
D|-------------------------------------------------------------------------------------------------------|
A|-------------------------------------------------------------------------------------------------------|
E|-------------------------------------------------------------------------------------------------------|

e|-----------------------------------|
B|-----------------------------------|
G|----------11----11-12-11-12-13~----|
D|-11-13-14----14--------------------|
A|-----------------------------------|
E|-----------------------------------|

[Riff 4]
(chorus)
e|--11-13-14-13-11----------------------------------------------------------------|
B|-----------------14-11~-------11-12-11--------------------11-14-12-11-----------|
G|---------------------------13----------13-11------10---11-------------11-13~----|
D|---------------------------------------------13---------------------------------|
A|--------------------------------------------------------------------------------|
E|--------------------------------------------------------------------------------|

e|--11-13-14-13-11---------------------------------------------------16--18-19-18-14~----|
B|-----------------14-11~-------11-12-11--------------------11-14-12---------------------|
G|---------------------------13----------13-11------10---11------------------------------|
D|---------------------------------------------13----------------------------------------|
A|---------------------------------------------------------------------------------------|
E|---------------------------------------------------------------------------------------|

[Riff 5]
(bass line solo)
e|-------------------------------------------------|
B|-------------------------------------------------|
G|-------------------------------------------------|
D|------11---9--9-8-----------11---9--9-8-9-11-----|
A|------------------11-9---------------------------|
E|--9---------------------9------------------------| x2


************************************

| p  Pull-off
| /  Slide up
| \  Slide down
| ~  Vibrato
| h  Hammer-on

************************************
Suggest correction
Give kudos to tab author, rate the tab!
1 2 3 4 5
comments
print report bad tab
guest
You may want to rate the tab now too:
select rating
Wanna post a correction for this tab? Suggest correction