Oops, an error
Loading. Please wait.

Mute Aint Silent Tab

27 views 1 this week
no commentswrite comment
1 2 3 4 5
please rate
add to favorites
launch autoscroll
font size
0
reset
how to read this tab
guitar tuner
Tab Pro tools
  • play this tab
  • loop segment
  • change instrument
  • show fretboard
  • metronome
×
Best way to learn
"Mute Aint Silent"
Autoscroll
slow
fast
+/-
esc
set tempo
stop
Contributor
Song: Mute Ain't Silent
Artist: VikingGuitar
Album: VikingGuitar
Website: http://vikingguitar.bandcamp.com/
Tabbed by: Beck

Tuning: Standard

CHORDS - rhythm plays these
e|--8----6---4---6----------------------------------------------|
B|--8----6---4---6----------------------------------------------|
G|--8----7---5---7----------------------------------------------|
D|--10---8---6---8----------------------------------------------|
A|--------------------------------------------------------------|
E|--------------------------------------------------------------|

e|---------------------------------------------------------------|
B|---------------------------------------------------------------|
G|---------------------------------------------------------------|
D|-15--13--10----13b-12-10--12-13--13b--13-12-10~----------------|
A|-15--13--10----------------------------------------------------|
E|-13--11--8-----------------------------------------------------|

e|---------------------------------------------------------------------|
B|---------------------------------------------------------------------|
G|-----10-12--10---/15--13--12--10---/12--10---------------------------|
D|--13---------------------------------------13-12-10--8--8-8-9-9-10---|
A|---------------------------------------------------------------------|
E|---------------------------------------------------------------------|

e|------------------------------------------------------------------|
B|------------------------------------------------------------------|
G|---------------------------------------------------10-12-12--10---|
D|--/13--12h13p12p10-8--10--12--13b--13--12--10---13----------------|
A|------------------------------------------------------------------|
E|------------------------------------------------------------------|

e|----------------------------------------------------------|
B|----------------------------------------------------------|
G|--13/15--13--12--10--12--10-------------------------------|
D|-----------------------------13--12--10--8--8-8-9-10------|
A|----------------------------------------------------------|
E|----------------------------------------------------------|

e|----------------------------------------------------------|
B|----------------------------------------11---/13-/13------|
G|-----------------------10-12---10-12-13-------------------|
D|------10-12-13---12-13------------------------------------|
A|--13------------------------------------------------------|
E|----------------------------------------------------------|

e|--b13--11-10-----------------------------------------------------|
B|-------------13---11--11-12--13---13p12p11-----------------------|
G|-------------------------------------------12-11-10-8-8p10--8--8-|
D|-----------------------------------------------------------------|
A|-----------------------------------------------------------------|
E|-----------------------------------------------------------------|

e|----------------------------------------------------------|
B|------------------------------11--11----------------------|
G|--8--10-8--8---10----10-11-12-----------------------------|
D|------------------13--------------------------------------|
A|----------------------------------------------------------|
E|----------------------------------------------------------|

e|---------11p10-------11p10----------11-10-----10-11--/13--13--|
B|--13------------11----------11-12---------13------------------|
G|--------------------------------------------------------------|
D|--------------------------------------------------------------|
A|--------------------------------------------------------------|
E|--------------------------------------------------------------|

e|--13/15-15-13--13--20-------------------------------------|
B|----------------------------------------------------------|
G|----------------------------------------------------------|
D|----------------------------------------------------------|
A|----------------------------------------------------------|
E|----------------------------------------------------------|

e|----------------------------------------------------------|
B|----------------------------------------------------------|
G|----------------------------/10---------------------------|
D|--13b-r13--12--10--12--13--------13--12h13p12--10---------|
A|----------------------------------------------------------|
E|----------------------------------------------------------|

e|----------------------------------------------------------------|
B|----------------------------------------------------------------|
G|-----10-12-12--10--/15--15--13--12---13--12-10------------------|
D|--13-------------------------------------------13-12-8--8-9-10--|
A|----------------------------------------------------------------|
E|----------------------------------------------------------------|

e|------------------------------------------------------------|
B|------------------------------------------------------------|
G|--------------------------------------10-------10-12-12--10-|
D|--/13\12\10\8--10--12--12h13--12--13--------13--------------|
A|------------------------------------------------------------|
E|------------------------------------------------------------|

e|----------------------------------------------------------|
B|----------------------------------------------------------|
G|--12--/15--13--15----15b--15br--15b-----------------------|
D|----------------------------------------------------------|
A|----------------------------------------------------------|
E|----------------------------------------------------------|

BRIDGE:
CHORDS - played by rhythm for the rest of the song
e|------------------------------------------------------------------|
B|------------------------------------------------------------------|
G|------------------------------------------------------------------|
D|--10----13----12----10----8----10---------------------------------|
A|--10----13----13----10----8----10---------------------------------|
E|--8-----11----10----8-----6----8----------------------------------|

e|------------------------------------------------------------|
B|------------------------------------------------------------|
G|---------------------/10-------------/10--------------------|
D|--13-12--10--12--13------13-12--10-------13-12--10--12--13--|
A|------------------------------------------------------------|
E|------------------------------------------------------------|

e|------------------------------------------------------------|
B|------------------------------------------------------------|
G|-/10---------------/12--10--------------10--12br--10--10h12-|
D|------13-12--10-------------13--12--13----------------------|
A|------------------------------------------------------------|
E|------------------------------------------------------------|

e|----------------------------------------------------------|
B|--13--11--------------11----------------------------------|
G|----------13--12--13------13--12--10h12--12---------------|
D|----------------------------------------------------------|
A|----------------------------------------------------------|
E|----------------------------------------------------------|

e|----------------------------------------------------------|
B|-----11--13---11------------------------------------------|
G|--12-------------12--10---12------------------------------|
D|-----------------------------13--12-----------------------|
A|----------------------------------------------------------|
E|----------------------------------------------------------|

e|-------18------------------18-------18br----18b-----------|
B|--18b-----r18--18------18b-----r18------------------------|
G|----------------------------------------------------------|
D|----------------------------------------------------------|
A|----------------------------------------------------------|
E|----------------------------------------------------------|
comments
We did not receive enough feedback on this tab! Please rate:
print report bad tab
1 2 3 4 5
I want to post or [tab]
guest
You may want to rate the tab now too:
select rating
Please do not post tabs as comments. Select "correction" instead!