Oops, an error
Loading. Please wait.

Kung Fu Fighting bass

139 views 1 this week
no commentswrite comment
1 2 3 4 5
3 more votes to show rating
add to favorites
×
Save as Personal and add changes to this tab that will be seen only by you. Learn more ›
×
You can save this tab as Personal to edit and correct it or add notes. All changes will be seen only by you. Learn more »
launch autoscroll
font size
0
reset
guitar tuner
edit
Autoscroll
slow
fast
+/-
esc
set tempo
stop
Author
Village People - Kung Fu Fighting - Bass tab
Tabbed by: Jorge Alexandre


[Intro] 

(Singing)


[Chorus]

There are two chords here: D and Em

G|---------------------------------------------------------------------------|
D|---------------------------------------------------------------------------| x2
A|-5-5--x--5-5--5-5--5-3-----------------------------------------------------|
E|-----------------------5---------------------------------------------------|

G|---------------------------------------------------------------------------|
D|---------------------------------------------------------------------------| x2
A|-7-7--x--7-7--7-7--7-5-----------------------------------------------------|
E|-----------------------7---------------------------------------------------|


[Verse]

Same thing, but you only go through each chord once and then repeat.

G|---------------------------------------------------------------------------|
D|---------------------------------------------------------------------------|
A|-5-5--x--5-5--5-5--5-3-----------------------------------------------------|
E|-----------------------5---------------------------------------------------|

G|---------------------------------------------------------------------------|
D|---------------------------------------------------------------------------|
A|-7-7--x--7-7--7-7--7-5-----------------------------------------------------|
E|-----------------------7---------------------------------------------------|

Halfway through the song (about 2:00 on my CD player) there is a chord change. This is the one the other
tabbers seem to have missed. The song keeps following the same structure, but goes to B and Em, like so:

G|---------------------------------------------------------------------------|
D|---------------------------------------------------------------------------|
A|-2-2--x--2-2--2-2--2-0-----------------------------------------------------| x2
E|-----------------------2---------------------------------------------------|

G|---------------------------------------------------------------------------|
D|---------------------------------------------------------------------------| x2
A|-7-7--x--7-7--7-7--7-5-----------------------------------------------------|
E|-----------------------7---------------------------------------------------|

************************************
| x   Dead note
************************************

            
            
Suggest correction
Creating personal tab
Creating personal tab
You can edit any tab online and save it as your Personal.

You can edit, replace or remove any tab part or add personal notes – all changes will be seen only by you.

Personal tabs can be accessed anytime from any device, even offline.
Learn more »
Give kudos to tab author, rate the tab!
1 2 3 4 5
comments
print report bad tab
guest
You may want to rate the tab now too:
select rating
Wanna post a correction for this tab? Suggest correction