Oops, an error
Loading. Please wait.

Ymca Bass Tab

version 1
version 1

Whole song

Interactive

37,145 views 78 this week
2 commentsread comments
1 2 3 4 5
x 11
add to favorites
launch autoscroll
font size
0
reset
guitar tuner
backing track
0:00
0:00
×
Best way to learn
"Ymca"
Autoscroll
slow
fast
+/-
esc
set tempo
stop
[Intro]
                                  7x                       
G|--------------------|-------------------|-----------------------|
D|*-------------------|------------------*|*----------------------|
A|*--4----------------|------------------*|*----------------------|
E|--------------------|-------------------|---2----2----2----2----|
                                                                    
G|----------------------|----------------------|------------------------|
D|----------------------|----------------------|---------------7-----8--|
A|----------------------|--6----6----6----6----|--6----6----------------|
E|--2----2----2----2----|----------------------|------------5-----6-----|
                                                              
G|----------------------|----------------------|---------------------|
D|----------------------|----------------------|---------------------|
A|--2----2----2----2----|--2----2----2----2----|--4------2------1----|
E|----------------------|----------------------|---------------------|

[Pre-Chorus]                                         
G|----------------------|----------------------|-------------------|
D|---------------------*|----------------------|-------------------|
A|---------------------*|--4----4----4----4----|--4(Slide)---------|
E|----4------2----1-----|----------------------|-------------------|

[Chorus]                                                      
G|-----------------------------|------------------6-----7--|
D|*-----4-4----4-----4-4----4--|-----4-4----4--------------|
A|*----------------------------|---------------4-----5-----|
E|---2------2-----2------2-----|--2------2-----------------|
                                                       
G|-----8-8----8-----8-8----8--|-----8-8----8--------------|
D|----------------------------|------------------4-----5--|
A|--6------6-----6------6-----|--6------6-----------------|
E|----------------------------|---------------2-----3-----|
                                                       
G|----------------------------|----------------------------|
D|-----6-6----6-----6-6----6--|-----6-6----6-----6-6----6--|
A|----------------------------|----------------------------|
E|--4------4-----4------4-----|--4------4-----4------4-----|
                                                        
G|-----6-6----6-----6-6----6--|-----6-6----6---------------|
D|----------------------------|------------------2-----3--*|
A|--4------4-----4------4-----|--4------4-----------------*|
E|----------------------------|---------------0-----1------|


************************************

| *  Natural harmonic 

************************************
Suggest correction
comments
print report bad tab
2 comments total.
+2 reply
aguacateojos 61 Aug 25, 2009 06:22 PM

Your verse into pre-chorus section is incorrect. What you have as

|---------------------|---------------------|
|---------------------|---------------------|
|--4------2------1----|---------------------|
|---------------------|--4------2------1----|

should actually be

|---------------------|-----------------------|
|---------------------|-----------------------|
|--7------6------4----|-----------------------|
|---------------------|--77------5-------4----|

or thereabouts.

0 reply
aguacateojos 61 Aug 25, 2009 06:22 PM

That didn't submit correctly... there is only a single B in the second measure

guest
You may want to rate the tab now too:
select rating
Wanna post a correction for this tab? Suggest correction