Oops, an error
Loading. Please wait.

Ymca bass

version 1
version 1

Whole song

Interactive

39,212 views 57 this week
2 commentsread comments
1 2 3 4 5
x 13
add to favorites
×
Save as Personal and add changes to this tab that will be seen only by you. Learn more ›
×
You can save this tab as Personal to edit and correct it or add notes. All changes will be seen only by you. Learn more »
launch autoscroll
font size
0
reset
guitar tuner
backing track
0:00
0:00
edit
Autoscroll
slow
fast
+/-
esc
set tempo
stop
[Intro]
                                  7x                       
G|--------------------|-------------------|-----------------------|
D|*-------------------|------------------*|*----------------------|
A|*--4----------------|------------------*|*----------------------|
E|--------------------|-------------------|---2----2----2----2----|
                                                                    
G|----------------------|----------------------|------------------------|
D|----------------------|----------------------|---------------7-----8--|
A|----------------------|--6----6----6----6----|--6----6----------------|
E|--2----2----2----2----|----------------------|------------5-----6-----|
                                                              
G|----------------------|----------------------|---------------------|
D|----------------------|----------------------|---------------------|
A|--2----2----2----2----|--2----2----2----2----|--8------6------4----|
E|----------------------|----------------------|---------------------|

[Pre-Chorus]                                         
G|----------------------|----------------------|-------------------|
D|---------------------*|----------------------|-------------------|
A|---------------------*|--4----4----4----4----|--4(Slide)---------|
E|----7------6----4-----|----------------------|-------------------|

[Chorus]                                                      
G|-----------------------------|------------------6-----7--|
D|*-----4-4----4-----4-4----4--|-----4-4----4--------------|
A|*----------------------------|---------------4-----5-----|
E|---2------2-----2------2-----|--2------2-----------------|
                                                       
G|-----8-8----8-----8-8----8--|-----8-8----8--------------|
D|----------------------------|------------------4-----5--|
A|--6------6-----6------6-----|--6------6-----------------|
E|----------------------------|---------------2-----3-----|
                                                       
G|----------------------------|----------------------------|
D|-----6-6----6-----6-6----6--|-----6-6----6-----6-6----6--|
A|----------------------------|----------------------------|
E|--4------4-----4------4-----|--4------4-----4------4-----|
                                                        
G|-----6-6----6-----6-6----6--|-----6-6----6---------------|
D|----------------------------|------------------2-----3--*|
A|--4------4-----4------4-----|--4------4-----------------*|
E|----------------------------|---------------0-----1------|


************************************

| *  Natural harmonic 

************************************

            
            
Suggest correction
Creating personal tab
Creating personal tab
You can edit any tab online and save it as your Personal.

You can edit, replace or remove any tab part or add personal notes – all changes will be seen only by you.

Personal tabs can be accessed anytime from any device, even offline.
Learn more »
comments
print report bad tab
2 comments total.
+3 reply
aguacateojos 61 Aug 25, 2009 02:22 PM

Your verse into pre-chorus section is incorrect. What you have as

|---------------------|---------------------|
|---------------------|---------------------|
|--4------2------1----|---------------------|
|---------------------|--4------2------1----|

should actually be

|---------------------|-----------------------|
|---------------------|-----------------------|
|--7------6------4----|-----------------------|
|---------------------|--77------5-------4----|

or thereabouts.

0 reply
aguacateojos 61 Aug 25, 2009 02:22 PM

That didn't submit correctly... there is only a single B in the second measure

guest
Wanna post a correction for this tab? Suggest correction