Oops, an error
Loading. Please wait.

My Lighthouse Tab

version 1
version 1

Intro

Whole song

2,162 views 3 this week
5 commentsread comments
1 2 3 4 5
excellent!
x 4
add to favorites
launch autoscroll
font size
0
reset
how to read this tab
guitar tuner
Autoscroll
slow
fast
+/-
esc
set tempo
stop
Help us to improve Ultimate-Guitar.com Take our survey!
×
Author
Difficulty
intermediate
 This is transcribed from the live from Attica version. This is a beautiful song and has 
a pretty
simple repeating fingerpicked part played during the first two verses. The song is in 
6/4, all notes
are eighth notes. Be careful with the fingering, the higher part needs to ring out into 
the next chord.
I can tab out the rest of the song if anyone is interested.

The Villagers-My Lighthouse   (standard tuning)


E-------------------------------------------------------------------------------|
B-------------------------------------------------------------------------------|
G----------------------------------------------------2---------2----------------|
D----------------------------------------------------3---------3----------------|
A--------0---------0----------0---------0----------------------------------1----|
E----1--------1----------1---------1-----------1---------1------------3---------|



E--------------------------------------------------------------------------------|
B--------------------------------------------------------------------------------|
G---------------------------------------2--------2-------------------------------|
D---------------------------------------3--------3-------------------------------|
A---------1---------1---------1-----------------------------0--------0--------0--|
E----3---------3---------3----------3--------3---------1--------1---------1------|



E--------------------------------------------------------------------------------|
B--------------------------------------------------------------------------------|
G----------------------2---------2-----------------------------------------------|
D----------------------3---------3-----------------------------------------------|
A---------0-----------------------------------1----------1----------1---------1--|
E----1-----------1----------1-----------3-----------3----------3---------3-------|



E---------------------------------------------------------------------------------|
B---------------------------------------------------------------------------------|
G--------2--------2--------------------------------------------------------2------|
D--------3--------3--------------------------------------------------------3------|
A-------------------------------0---------0----------0----------0-----------------|
E----3-------3------------1----------1----------1----------1----------1-----------|



E--------------------------------------------------------------------------------|
B--------------------------------------------------------------------------------|
G--------2----------------------------------------------------2---------2--------|
D--------3----------------------------------------------------3---------3--------|
A-------------------1---------1---------1----------1-----------------------------|
E---1----------3---------3---------3---------3-----------3---------3-------------|


E--------------------------------------------------------------------------------|
B--------------------------------------------------------------------------------|
G-----------------------------------------------------2----------2---------------|
D---------3---------3---------3----------3----------- 3----------3------------3--|
A----3---------3---------3----------3-----------3----------3------------2--------|
E--------------------------------------------------------------------------------|



E----------------------------------------------------------------------------------|
B----------------------------------------------------------------------------------|
G-------------------------------------------2-----------2--------------------------|
D---------3----------3-----------3----------3-----------3-----------3--------3-----|
A----2---------2-----------2-----------2----------2------------1---------1---------|
E----------------------------------------------------------------------------------|


E--------------------------------------------------------------------------------|
B--------------------------------------------------------------------------------|
G-----------------------------2----------2---------------------------------------|
D--------3---------3----------3----------3-----------3---------3----------3------|
A---1--------1----------1----------1------------1---------1----------1-----------|
E--------------------------------------------------------------------------------|




E---------------------------------------------------|
B---------------------------------------------------|
G----------------------2------------2------------*--|
D---------3------------3------------3------------*--|   repeat through the verses
A---1------------1------------1---------------------|
E---------------------------------------------------|
Suggest correction
What's this?
You can suggest a correction to this tab. Community and Mods will review your correction and vote to approve or reject it.
comments
print report bad tab
5 comments total. Showing first comments.
0 reply
CharlotteSTFU 66 wrote on January 15 2013, 01:19 pm

Yes, I'm interested! Thank you for this :)

0 reply
escalier1 11 wrote on January 29 2013, 05:24 pm

same here, this is great- thank you!

0 reply
JamesHPRoberts 32 wrote on March 5 2013, 05:16 am

Great stuff...would love to have the rest of the tab too thanks :)

guest
You may want to rate the tab now too:
select rating
Please do not post tabs as comments. Select "correction" instead!