Oops, an error
Loading. Please wait.

Nothing Arrived Live tab

version 2
version 2

Whole song

  • This tab is based on one of the live sessions cono... Show more
802 views 54 this week
2 commentsread comments
1 2 3 4 5
x 3
add to favorites
×
Save as Personal and add changes to this tab that will be seen only by you. Learn more ›
×
You can save this tab as Personal to edit and correct it or add notes. All changes will be seen only by you. Learn more »
launch autoscroll
font size
0
reset
how to read this tab
guitar tuner
edit
Autoscroll
slow
fast
+/-
esc
set tempo
stop
About this tab version
This tab is based on one of the live sessions conor o'brien has made (m.youtube.com/watch?v=B3Jk34pDH0M). The capo's on the 7th fret :). Was this info helpful? Yes No
[Part A]
e|-----------------|-----------------|-----------------|-----------------|
B|-----1-----------|-----------1-----|-----1-----------|-0---------0-----|
G|-----------0-----|-------0-------0-|-----------0-----|-------0-------0-|
D|-----2-------2---|-----2-------2---|-----2-------2---|-----3-------3---|
A|-3-------3-------|-3-------3-------|-3-------3-------|-5-------5-------|
E|-----------------|-----------------|-----------------|-----------------|
 | 1 + 2 + 3 + 4 + | 1 + 2 + 3 + 4 + | 1 + 2 + 3 + 4 + | 1 + 2 + 3 + 4 + |

e|-----------------|-----------------|-----------------|-----------------|
B|-----0h1---------|----------1------|-----1-----------|-----------------|
G|-----------2-----|------2-------2--|-----------2-----|-----------4-----|
D|-----2-------2---|----2-------2----|-----2-------2---|-------3-------3-|
A|-0-------0-------|-0------0--------|-0-------0-------|-----3-------3---|
E|-----------------|-----------------|-----------------|-1-------1-------|
 | 1 + 2 + 3 + 4 + | 1 + 2 + 3 + 4 + | 1 + 2 + 3 + 4 + | 1 + 2 + 3 + 4 + |

[Part B]
e|-----------------|-------0---------|-----------------|-----------------|
B|-----1-----------|-1h3-------3-----|-----1-----------|-0---------0-----|
G|-----------0-----|---------------0-|-----------0-----|-------0-------0-|
D|-----2-------2---|-----2-------2---|-----2-------2---|-----3-------3---|
A|-3-------3-------|-3-------3-------|-3-------3-------|-5-------5-------|
E|-----------------|-----------------|-----------------|-----------------|
 | 1 + 2 + 3 + 4 + | 1 + 2 + 3 + 4 + | 1 + 2 + 3 + 4 + | 1 + 2 + 3 + 4 + |

e|-----------------|-----------------|-----------------|-----------------|
B|-----0h1---------|-----------1-----|-----1-----------|-----------------|
G|-----------2-----|-------2-------2-|-----------2-----|----------4------|
D|-----2-------2---|----2-------2----|-----2-------2---|-------3-------3-|
A|-0-------0-------|-0------0--------|-0-------0-------|-----3-------3---|
E|-----------------|-----------------|-----------------|-1-------1-------|
 | 1 + 2 + 3 + 4 + | 1 + 2 + 3 + 4 + | 1 + 2 + 3 + 4 + | 1 + 2 + 3 + 4 + |

[Part C]
e|-----------------|-----------------|-----------------|-----------------|
B|-----------------|-----------------|-----------------|-----------------|
G|-----------------|-----------------|-----------------|-----------------|
D|-----2-------2---|-----2-------2---|-----2-------2---|-----3-------3---|
A|-3-------3-------|-3-------3-------|-3-------3-------|-5-------5-------|
E|-----------------|-----------------|-----------------|-----------------|
 | 1 + 2 + 3 + 4 + | 1 + 2 + 3 + 4 + | 1 + 2 + 3 + 4 + | 1 + 2 + 3 + 4 + |

e|-----------------|-----------------|-----------------|-----------------|
B|-----------------|-----------------|-----------------|-----------------|
G|-----------------|-----------------|-----------------|-----------------|
D|-----2-------2---|----2-------2----|-----2-------2---|-----------------|
A|-0-------0-------|-0------0--------|-0-------0-------|-----3-------3---|
E|-----------------|-----------------|-----------------|-1-------1-------|
 | 1 + 2 + 3 + 4 + | 1 + 2 + 3 + 4 + | 1 + 2 + 3 + 4 + | 1 + 2 + 3 + 4 + |

e|-----------------|-----------------|-----------------|-----------------|
B|-----1-----------|-1---------1-----|-----1-----------|-1---------1-----|
G|-----------2-----|-------2-------2-|-----------2-----|-------0-------0-|
D|-----2-------2---|-----2-------2---|-----2-------2---|-----2-------2---|
A|-0-------0-------|-0-------0-------|-0-------0-------|-----------------|
E|-----------------|-----------------|-----------------|-3-------3-------|
 | 1 + 2 + 3 + 4 + | 1 + 2 + 3 + 4 + | 1 + 2 + 3 + 4 + | 1 + 2 + 3 + 4 + |

[Part D]
e|-----------------|-----------------|-----------------|-----------------|
B|-----------------|-----------------|-----------------|-----------------|
G|-----2-----------|----------2------|-----2-----------|-----------2-----|
D|-----------3-----|--------3----3---|-----------3-----|-------3-------3-|
A|-----3-------3---|------3-----3----|-----3-------3---|-----0-------0---|
E|-1-------1-------|-1--------1------|-1-------1-------|-3-------3-------|
 | 1 + 2 + 3 + 4 + | 1 + 2 + 3 + 4 + | 1 + 2 + 3 + 4 + | 1 + 2 + 3 + 4 + |

e|-----------------|-----------------|-----------------|-----------------|
B|-----0h1---------|-1---------3-----|-----------------|-1---------1-----|
G|-----------2-----|-------0-------0-|-----------0-----|-------0-------0-|
D|-----2-------2---|-----0-------0---|-----0h2-----2---|-----2-------2---|
A|-0-------0-------|-0-------2-------|-3-------3-------|-3-------3-------|
E|-----------------|-----------------|-----------------|-----------------|
 | 1 + 2 + 3 + 4 + | 1 + 2 + 3 + 4 + | 1 + 2 + 3 + 4 + | 1 + 2 + 3 + 4 + |

Order : AB AA BB CC BB AA CC DDDDDDDD 

************************************

| h   Hammer-on

************************************ 

            
            
Suggest correction
Creating personal tab
Creating personal tab
You can edit any tab online and save it as your Personal.

You can edit, replace or remove any tab part or add personal notes – all changes will be seen only by you.

Personal tabs can be accessed anytime from any device, even offline.
Learn more »
Give kudos to tab author, rate the tab!
1 2 3 4 5
comments
print report bad tab
2 comments total.
+1 reply
pitou63 10 Jul 29, 2017 04:57 AM

Perfect ! Thanks for this exatly tab !

0 reply
jemaarayan2002 41 Sep 24, 2017 11:05 PM

you're welcome :)

guest
You may want to rate the tab now too:
select rating
Wanna post a correction for this tab? Suggest correction