Oops, an error
Loading. Please wait.

Syria tab

40 views 3 this week
no commentswrite comment
1 2 3 4 5
3 more votes to show rating
add to favorites
×
Save as Personal and add changes to this tab that will be seen only by you. Learn more ›
×
You can save this tab as Personal to edit and correct it or add notes. All changes will be seen only by you. Learn more »
launch autoscroll
font size
0
reset
how to read this tab
guitar tuner
edit
Autoscroll
slow
fast
+/-
esc
set tempo
stop
[Intro]
e|---------------------------------------------------------------------------|
B|------8---8---8---8---8---8---8---8---8---8---8---8---8---8---8---8--------|
G|---------------------------------------------------------------------------|
D|------9---9---9---9---9---9---9---9---9---9---9---9---9---9---9---9--------| (x4)
A|------7---7---7---7---7---7---7---7---7---7---7---7---7---7---7---7--------|
E|---------------------------------------------------------------------------|

e|---------------------------------------------------------------------------|
B|--------------8-------8---8---x---8-------8---8-------8---8---8---8--------|
G|---------------------------------------------------------------------------|
D|--------------9-------9---9---x---9-------9---9-------9---9---9---9--------| (x3)
A|--------------7-------7---7---x---7-------7---7-------7---7---7---7--------|
E|------0--------------------------------------------------------------------|

e|---------------------------------------------------------------------------|
B|--------------8-------8---8---x---8~\--------------------------------------|
G|---------------------------------------------------------------------------|
D|--------------9-------9---9---x---9~\--------------------------------------|
A|--------------7-------7---7---x---7~\--------------------------------------|
E|------0--------------------------------------------------------------------|

[Verse]
e|---------------------------------------------------------------------------|
B|---------------------------------------------------------------------------|
G|---------------------------------------------------------------------------|
D|---------------------------------------------------------------------------|
A|------------------------------------------------------12--12--12--12-------| (x4)
E|------12-p0---12-p0---0---12--0---12\-----0---0---0---10--10--10--10-------|

e|---------------------------------------------------------------------------|
B|---------------------------------------------------------------------------|
G|---------------------------------------------------------------------------|
D|---------------------------------------------------------------------------|
A|------------------------------------------------------12--12--12--12-------| (x4)
E|------12\-----0-----------12\-----0------(x)-(x)-(x)--10--10--10--10-------|

[Pre-Chorus]
e|---------------------------------------------------|--------------------------------------------------|
B|---------------------------------------------------|--------------------------------------------------|
G|---------------------------------------------------|--------------------------------------------------|
D|---------------------------------------------------|--------------------------------------------------|
A|--10-10-10-10-10-10-10-10-10-10-10-10-10-10-10-10--|--7--7--7--7--7--7--7--7--7--7--7--7--7--7--7--7--|
E|--8--8--8--8--8--8--8--8--8--8--8--8--8--8--8--8---|--5--5--5--5--5--5--5--5--5--5--5--5--5--5--5--5--|

e|---------------------------------------------------|--------------------------------------------------|
B|---------------------------------------------------|--------------------------------------------------|
G|--------12-12-------11-11-------10-10-------9--9---|--------12-12-------11-11-------10-10-------9--9--|
D|---------------------------------------------------|--------------------------------------------------|
A|--------10-10-------9--9--------8--8--------7--7---|--------10-10-------9--9--------8--8--------7--7--|
E|--0~----------0~----------0~----------0~-----------|--0~----------0~----------0~----------0~----------|

e|---------------------------------------------------|--------------------------------------------------|
B|---------------------------------------------------|--------------------------------------------------|
G|---------------------------------------------------|--------------------------------------------------|
D|---------------------------------------------------|--------------------------------------------------|
A|--10-10-10-10-10-10-10-10-10-10-10-10-10-10-10-10--|--7--7--7--7--7--7--7--7--13-13-13-13-13-13-13-13-|
E|--8--8--8--8--8--8--8--8--8--8--8--8--8--8--8--8---|--5--5--5--5--5--5--5--5--11-11-11-11-11-11-11-11-|

e|---------------------------------------------------|--------------------------------------------------|
B|---------------------------------------------------|--------------------------------------------------|
G|--------12-12-------11-11-------10-10-------9--9---|--------8--8--------9--9--------11-11-------12-12-|
D|---------------------------------------------------|--------------------------------------------------|
A|--------10-10-------9--9--------8--8--------7--7---|--------6--6--------7--7--------9--9--------10-10-|
E|--0~----------0~----------0~----------0~-----------|--0~----------0~----------0~----------0~----------|

[Chorus]
(Guitar 1)
e|--------------------------------------------------|---------------------------------------------------|
B|--------------------------------------------------|---------------------------------------------------|
G|--------------------------------------------------|---------------------------------------------------|
D|--7--7--7--7--7--7--7--7--7--7--7--7--7--7--7--7--|--10-10-10-10-10-10-10-10-10-10-10-10-10-10-10-10--|
A|--7--7--7--7--7--7--7--7--7--7--7--7--7--7--7--7--|--10-10-10-10-10-10-10-10-10-10-10-10-10-10-10-10--|
E|--5--5--5--5--5--5--5--5--5--5--5--5--5--5--5--5--|--8--8--8--8--8--8--8--8--8--8--8--8--8--8--8--8---|
                                                                                                         
e|--------------------------------------------------|---------------------------------------------------|
B|--------------------------------------------------|---------------------------------------------------|
G|--------------------------------------------------|---------------------------------------------------|
D|--2--2--2--2--2--2--2--2--2--2--2--2--2--2--2--2--|--2--2--2--2--2--2--2--2--2--2--2--2--2--2--2--2---|
A|--2--2--2--2--2--2--2--2--2--2--2--2--2--2--2--2--|--2--2--2--2--2--2--2--2--2--2--2--2--2--2--2--2---|
E|--0--0--0--0--0--0--0--0--0--0--0--0--0--0--0--0--|--0--0--0--0--0--0--0--0--0--0--0--0--0--0--0--0---|

e|--------------------------------------------------|---------------------------------------------------|
B|--------------------------------------------------|---------------------------------------------------|
G|--------------------------------------------------|---------------------------------------------------|
D|--7--7--7--7--7--7--7--7--7--7--7--7--7--7--7--7--|--10-10-10-10-10-10-10-10-10-10-10-10-10-10-10-10--|
A|--7--7--7--7--7--7--7--7--7--7--7--7--7--7--7--7--|--10-10-10-10-10-10-10-10-10-10-10-10-10-10-10-10--|
E|--5--5--5--5--5--5--5--5--5--5--5--5--5--5--5--5--|--8--8--8--8--8--8--8--8--8--8--8--8--8--8--8--8---|

e|--------------------------------------------------|---------------------------------------------------|
B|--------------------------------------------------|---------------------------------------------------|
G|--------------------------------------------------|---------------------------------------------------|
D|--2--2--2--2--2--2--2--2--2--2--2--2--2--2--2--2--|--7--7--7-----7--7-----7-----7--7--7--7--7--7--7---|
A|--2--2--2--2--2--2--2--2--2--2--2--2--2--2--2--2--|--7--7--7-----7--7-----7-----7--7--7--7--7--7--7---|
E|--0--0--0--0--0--0--0--0--0--0--0--0--0--0--0--0--|--5--5--5-----5--5-----5-----5--5--5--5--5--5--5---|

e|--------------------------------------------------|---------------------------------------------------|
B|--------------------------------------------------|---------------------------------------------------|
G|--------------------------------------------------|---------------------------------------------------|
D|--7--7--7-----7--7-----7-----7--7--7--7--7--7--7--|---------------------------------------------------|
A|--7--7--7-----7--7-----7-----7--7--7--7--7--7--7--|--13-13-13-13-13-13-13-13-13-13-13-13-13-13-13-13--|
E|--5--5--5-----5--5-----5-----5--5--5--5--5--5--5--|--11-11-11-11-11-11-11-11-11-11-11-11-11-11-11-11--|

(Guitar 2) 
(Lead Melody)
e|--------15-------15-------15-------15-------15----|
B|--12h13----12h13----12h13----12h13----12h13----12-|
G|--------------------------------------------------|
D|--------------------------------------------------| (x9)
A|--------------------------------------------------| 
E|--------------------------------------------------|

[Pre-Verse]
e|---------------------------------------------------------------------------|
B|--------------8-------8---8---x---8-------8---8-------8---8---8---8--------|
G|---------------------------------------------------------------------------|
D|--------------9-------9---9---x---9-------9---9-------9---9---9---9--------| (x3)
A|--------------7-------7---7---x---7-------7---7-------7---7---7---7--------|
E|------0--------------------------------------------------------------------|

e|---------------------------------------------------------------------------|
B|--------------8-------8---8---x---8~\--------------------------------------|
G|---------------------------------------------------------------------------|
D|--------------9-------9---9---x---9~\--------------------------------------|
A|--------------7-------7---7---x---7~\--------------------------------------|
E|------0--------------------------------------------------------------------|

[Verse]
e|---------------------------------------------------------------------------|
B|---------------------------------------------------------------------------|
G|---------------------------------------------------------------------------|
D|---------------------------------------------------------------------------|
A|------------------------------------------------------12--12--12--12-------| (x4)
E|------12-p0---12-p0---0---12--0---12\-----0---0---0---10--10--10--10-------|

e|---------------------------------------------------------------------------|
B|---------------------------------------------------------------------------|
G|---------------------------------------------------------------------------|
D|---------------------------------------------------------------------------|
A|------------------------------------------------------12--12--12--12-------| (x4)
E|------12\-----0-----------12\-----0------(x)-(x)-(x)--10--10--10--10-------|

[Pre-Chorus]
e|---------------------------------------------------|--------------------------------------------------|
B|---------------------------------------------------|--------------------------------------------------|
G|---------------------------------------------------|--------------------------------------------------|
D|---------------------------------------------------|--------------------------------------------------|
A|--10-10-10-10-10-10-10-10-10-10-10-10-10-10-10-10--|--7--7--7--7--7--7--7--7--7--7--7--7--7--7--7--7--|
E|--8--8--8--8--8--8--8--8--8--8--8--8--8--8--8--8---|--5--5--5--5--5--5--5--5--5--5--5--5--5--5--5--5--|

e|---------------------------------------------------|--------------------------------------------------|
B|---------------------------------------------------|--------------------------------------------------|
G|--------12-12-------11-11-------10-10-------9--9---|--------12-12-------11-11-------10-10-------9--9--|
D|---------------------------------------------------|--------------------------------------------------|
A|--------10-10-------9--9--------8--8--------7--7---|--------10-10-------9--9--------8--8--------7--7--|
E|--0~----------0~----------0~----------0~-----------|--0~----------0~----------0~----------0~----------|

e|---------------------------------------------------|--------------------------------------------------|
B|---------------------------------------------------|--------------------------------------------------|
G|---------------------------------------------------|--------------------------------------------------|
D|---------------------------------------------------|--------------------------------------------------|
A|--10-10-10-10-10-10-10-10-10-10-10-10-10-10-10-10--|--7--7--7--7--7--7--7--7--13-13-13-13-13-13-13-13-|
E|--8--8--8--8--8--8--8--8--8--8--8--8--8--8--8--8---|--5--5--5--5--5--5--5--5--11-11-11-11-11-11-11-11-|

e|---------------------------------------------------|--------------------------------------------------|
B|---------------------------------------------------|--------------------------------------------------|
G|--------12-12-------11-11-------10-10-------9--9---|--------8--8--------9--9--------11-11-------12-12-|
D|---------------------------------------------------|--------------------------------------------------|
A|--------10-10-------9--9--------8--8--------7--7---|--------6--6--------7--7--------9--9--------10-10-|
E|--0~----------0~----------0~----------0~-----------|--0~----------0~----------0~----------0~----------|

[Chorus]
(Guitar 1)
e|--------------------------------------------------|---------------------------------------------------|
B|--------------------------------------------------|---------------------------------------------------|
G|--------------------------------------------------|---------------------------------------------------|
D|--7--7--7--7--7--7--7--7--7--7--7--7--7--7--7--7--|--10-10-10-10-10-10-10-10-10-10-10-10-10-10-10-10--|
A|--7--7--7--7--7--7--7--7--7--7--7--7--7--7--7--7--|--10-10-10-10-10-10-10-10-10-10-10-10-10-10-10-10--|
E|--5--5--5--5--5--5--5--5--5--5--5--5--5--5--5--5--|--8--8--8--8--8--8--8--8--8--8--8--8--8--8--8--8---|
                                                                                                         
e|--------------------------------------------------|---------------------------------------------------|
B|--------------------------------------------------|---------------------------------------------------|
G|--------------------------------------------------|---------------------------------------------------|
D|--2--2--2--2--2--2--2--2--2--2--2--2--2--2--2--2--|--2--2--2--2--2--2--2--2--2--2--2--2--2--2--2--2---|
A|--2--2--2--2--2--2--2--2--2--2--2--2--2--2--2--2--|--2--2--2--2--2--2--2--2--2--2--2--2--2--2--2--2---|
E|--0--0--0--0--0--0--0--0--0--0--0--0--0--0--0--0--|--0--0--0--0--0--0--0--0--0--0--0--0--0--0--0--0---|

e|--------------------------------------------------|---------------------------------------------------|
B|--------------------------------------------------|---------------------------------------------------|
G|--------------------------------------------------|---------------------------------------------------|
D|--7--7--7--7--7--7--7--7--7--7--7--7--7--7--7--7--|--10-10-10-10-10-10-10-10-10-10-10-10-10-10-10-10--|
A|--7--7--7--7--7--7--7--7--7--7--7--7--7--7--7--7--|--10-10-10-10-10-10-10-10-10-10-10-10-10-10-10-10--|
E|--5--5--5--5--5--5--5--5--5--5--5--5--5--5--5--5--|--8--8--8--8--8--8--8--8--8--8--8--8--8--8--8--8---|

e|--------------------------------------------------|---------------------------------------------------|
B|--------------------------------------------------|---------------------------------------------------|
G|--------------------------------------------------|---------------------------------------------------|
D|--2--2--2--2--2--2--2--2--2--2--2--2--2--2--2--2--|--7--7--7-----7--7-----7-----7--7--7--7--7--7--7---|
A|--2--2--2--2--2--2--2--2--2--2--2--2--2--2--2--2--|--7--7--7-----7--7-----7-----7--7--7--7--7--7--7---|
E|--0--0--0--0--0--0--0--0--0--0--0--0--0--0--0--0--|--5--5--5-----5--5-----5-----5--5--5--5--5--5--5---|

e|--------------------------------------------------|---------------------------------------------------|
B|--------------------------------------------------|---------------------------------------------------|
G|--------------------------------------------------|---------------------------------------------------|
D|--7--7--7-----7--7-----7-----7--7--7--7--7--7--7--|---------------------------------------------------|
A|--7--7--7-----7--7-----7-----7--7--7--7--7--7--7--|--13-13-13-13-13-13-13-13-13-13-13-13-13-13-13-13--|
E|--5--5--5-----5--5-----5-----5--5--5--5--5--5--5--|--11-11-11-11-11-11-11-11-11-11-11-11-11-11-11-11--|

(Guitar 2) 
(Lead Melody)
e|--------15-------15-------15-------15-------15----|
B|--12h13----12h13----12h13----12h13----12h13----12-|
G|--------------------------------------------------|
D|--------------------------------------------------| (x9)
A|--------------------------------------------------| 
E|--------------------------------------------------|

[Bridge]
(Guitar 1)
e|--------------------------------------------------|--------------------------------------------------|
B|-----8-----------8-----------8-----------8--------|-----7-----------7-----------7-----------7--------|
G|--------------------------------------------------|--------------------------------------------------|
D|-----9-----------9-----------9-----------9--------|-----7-----------7-----------7-----------7--------|
A|-----7-----------7-----------7-----------7--------|-----5-----------5-----------5-----------5--------|
E|--------------------------------------------------|--------------------------------------------------|
                                                                                              *            
e|--------------------------------------------------|--------------------------------------------------|
B|-----10----------10----------10----------10-------|-----8-----------8-----------8-----------7--------|
G|--------------------------------------------------|----------------------------------------(8)-------|
D|-----10----------10----------10----------10-------|-----9-----------9-----------9--------------------|
A|-----8-----------8-----------8-----------8--------|-----7-----------7-----------7-----------7--------|
E|--------------------------------------------------|--------------------------------------------------|
                                                                                                      
(This F note only occurs during the first repition of the chord progression. Play the Em here as per the 
rest of the measure for all subsequent repitions.)

(Guitar 2)
e|--------------------------------------------------|--------------------------------------------------|
B|--------------------------------------------------|--------------------------------------------------|
G|--------------------------------------------------|--------------------------------------------------|
D|--------------------------------------------------|--------------------------------------------------|
A|--------------------------------------------------|--------------------------------------------------|
E|--10-12-12-12-10-12-12-12-10-12-12-12-10-12-12-12-|--10-12-12-12-10-12-12-12-10-12-12-12-10-12-12-12-|
  PM..................................................................................................
 
e|--------------------------------------------------|--------------------------------------------------|
B|--------------------------------------------------|--------------------------------------------------|
G|--------------------------------------------------|--------------------------------------------------|
D|--------------------------------------------------|--------------------------------------------------|
A|--------------------------------------------------|--------------------------------------------------|
E|--13-12-12-12-13-12-12-12-13-12-12-12-13-12-12-12-|--10-12-12-12-10-12-12-12-10-12-12-12-10-12-12-12-|
  PM..................................................................................................

e|--------------------------------------------------|--------------------------------------------------|
B|--------------------------------------------------|--------------------------------------------------|
G|--------------------------------------------------|--------------------------------------------------|
D|--------------------------------------------------|--------------------------------------------------|
A|--14----------14----------14----------14----------|--------------------------------------------------|
E|-----15-15-15----15-15-15----15-15-15----15-15-15-|--15-14-14-14-15-14-14-14-15-14-14-14-15-14-14-14-|
  PM..................................................................................................
 
e|--------------------------------------------------|--------------------------------------------------|
B|--------------------------------------------------|--------------------------------------------------|
G|--------------------------------------------------|--------------------------------------------------|
D|--------------------------------------------------|--9--9--9-----9--9--9--9-----9--9-----9--9--9--9--|
A|--15-12-12-12-15-12-12-12-15-12-12-12-15-12-12-12-|--7--7--7-----7--7--7--7-----7--7-----7--7--7--7--|
E|--------------------------------------------------|--------------------------------------------------|
  PM..................................................................................................

[Pre-Chorus]
e|---------------------------------------------------|--------------------------------------------------|
B|---------------------------------------------------|--------------------------------------------------|
G|---------------------------------------------------|--------------------------------------------------|
D|---------------------------------------------------|--------------------------------------------------|
A|--10----10----10----10----10----10----10----10-----|--7-----7-----7-----7-----7-----7-----7-----7-----|
E|--8-----8-----8-----8-----8-----8-----8-----8------|--5-----5-----5-----5-----5-----5-----5-----5-----|

e|---------------------------------------------------|--------------------------------------------------|
B|---------------------------------------------------|--------------------------------------------------|
G|--------12-12-------11-11-------10-10-------9--9---|--------12-12-------11-11-------10-10-------9--9--|
D|---------------------------------------------------|--------------------------------------------------|
A|--------10-10-------9--9--------8--8--------7--7---|--------10-10-------9--9--------8--8--------7--7--|
E|--0~----------0~----------0~----------0~-----------|--0~----------0~----------0~----------0~----------|

e|---------------------------------------------------|--------------------------------------------------|
B|---------------------------------------------------|--------------------------------------------------|
G|---------------------------------------------------|--------------------------------------------------|
D|---------------------------------------------------|--------------------------------------------------|
A|--10-10-10-10-10-10-10-10-10-10-10-10-10-10-10-10--|--7--7--7--7--7--7--7--7--13-13-13-13-13-13-13-13-|
E|--8--8--8--8--8--8--8--8--8--8--8--8--8--8--8--8---|--5--5--5--5--5--5--5--5--11-11-11-11-11-11-11-11-|

e|---------------------------------------------------|--------------------------------------------------|
B|---------------------------------------------------|--------------------------------------------------|
G|--------12-12-------11-11-------10-10-------9--9---|--------8--8--------9--9--------11-11-------12-12-|
D|---------------------------------------------------|--------------------------------------------------|
A|--------10-10-------9--9--------8--8--------7--7---|--------6--6--------7--7--------9--9--------10-10-|
E|--0~----------0~----------0~----------0~-----------|--0~----------0~----------0~----------0~----------|

[Chorus]
(Guitar 1)
e|--------------------------------------------------|---------------------------------------------------|
B|--------------------------------------------------|---------------------------------------------------|
G|--------------------------------------------------|---------------------------------------------------|
D|--7--7--7--7--7--7--7--7--7--7--7--7--7--7--7--7--|--10-10-10-10-10-10-10-10-10-10-10-10-10-10-10-10--|
A|--7--7--7--7--7--7--7--7--7--7--7--7--7--7--7--7--|--10-10-10-10-10-10-10-10-10-10-10-10-10-10-10-10--|
E|--5--5--5--5--5--5--5--5--5--5--5--5--5--5--5--5--|--8--8--8--8--8--8--8--8--8--8--8--8--8--8--8--8---|
                                                                                                         
e|--------------------------------------------------|---------------------------------------------------|
B|--------------------------------------------------|---------------------------------------------------|
G|--------------------------------------------------|---------------------------------------------------|
D|--2--2--2--2--2--2--2--2--2--2--2--2--2--2--2--2--|--2--2--2--2--2--2--2--2--2--2--2--2--2--2--2--2---|
A|--2--2--2--2--2--2--2--2--2--2--2--2--2--2--2--2--|--2--2--2--2--2--2--2--2--2--2--2--2--2--2--2--2---|
E|--0--0--0--0--0--0--0--0--0--0--0--0--0--0--0--0--|--0--0--0--0--0--0--0--0--0--0--0--0--0--0--0--0---|

e|--------------------------------------------------|---------------------------------------------------|
B|--------------------------------------------------|---------------------------------------------------|
G|--------------------------------------------------|---------------------------------------------------|
D|--7--7--7--7--7--7--7--7--7--7--7--7--7--7--7--7--|--10-10-10-10-10-10-10-10-10-10-10-10-10-10-10-10--|
A|--7--7--7--7--7--7--7--7--7--7--7--7--7--7--7--7--|--10-10-10-10-10-10-10-10-10-10-10-10-10-10-10-10--|
E|--5--5--5--5--5--5--5--5--5--5--5--5--5--5--5--5--|--8--8--8--8--8--8--8--8--8--8--8--8--8--8--8--8---|

e|--------------------------------------------------|---------------------------------------------------|
B|--------------------------------------------------|---------------------------------------------------|
G|--------------------------------------------------|---------------------------------------------------|
D|--2--2--2--2--2--2--2--2--2--2--2--2--2--2--2--2--|--7--7--7-----7--7-----7-----7--7--7--7--7--7--7---|
A|--2--2--2--2--2--2--2--2--2--2--2--2--2--2--2--2--|--7--7--7-----7--7-----7-----7--7--7--7--7--7--7---|
E|--0--0--0--0--0--0--0--0--0--0--0--0--0--0--0--0--|--5--5--5-----5--5-----5-----5--5--5--5--5--5--5---|

e|--------------------------------------------------|---------------------------------------------------|
B|--------------------------------------------------|---------------------------------------------------|
G|--------------------------------------------------|---------------------------------------------------|
D|--7--7--7-----7--7-----7-----7--7--7--7--7--7--7--|---------------------------------------------------|
A|--7--7--7-----7--7-----7-----7--7--7--7--7--7--7--|--13-13-13-13-13-13-13-13-13-13-13-13-13-13-13-13--|
E|--5--5--5-----5--5-----5-----5--5--5--5--5--5--5--|--11-11-11-11-11-11-11-11-11-11-11-11-11-11-11-11--|

(Guitar 2) 
(Lead Melody)
e|--------15-------15-------15-------15-------15----|
B|--12h13----12h13----12h13----12h13----12h13----12-|
G|--------------------------------------------------|
D|--------------------------------------------------| (x9)
A|--------------------------------------------------| 
E|--------------------------------------------------|

[Outro]
e|--------------------------------------------------|
B|--------------------------------------------------|
G|--------------------------------------------------|
D|--------------------------------------------------| (x7)
A|----------------------------------------------5---|
E|--12p0--12--(x)13----12----10h-12----5h-6h-8------|  

e|--------------------------------------------------|
B|--------------------------------------------------|
G|--------------------------------------------------|
D|--------------------------------------------------|
A|---------------------14---------------------------|
E|--12p0--12--(x)13----12---------------------------|                                                       


************************************

| x    Dead note
| p    Pull-off
| \    Slide down
| ~    Vibrato
| h    Hammer-on
| (n)  Ghost note
| PM   Palm mute
       

************************************

            
            
Suggest correction
Creating personal tab
Creating personal tab
You can edit any tab online and save it as your Personal.

You can edit, replace or remove any tab part or add personal notes – all changes will be seen only by you.

Personal tabs can be accessed anytime from any device, even offline.
Learn more »
Give kudos to tab author, rate the tab!
1 2 3 4 5
comments
print report bad tab
guest
You may want to rate the tab now too:
select rating
Wanna post a correction for this tab? Suggest correction