Oops, an error
Loading. Please wait.

Entren Santos Peregrinos tab

98 views 1 this week
no commentswrite comment
1 2 3 4 5
3 more votes to show rating
add to favorites
×
Save as Personal and add changes to this tab that will be seen only by you. Learn more ›
×
You can save this tab as Personal to edit and correct it or add notes. All changes will be seen only by you. Learn more »
launch autoscroll
font size
0
reset
how to read this tab
guitar tuner
edit
Autoscroll
slow
fast
+/-
esc
set tempo
stop
Bueno pues aquí les dejo este requinto corregido que hace
vario tiempo subí a una cuerda. Espero que les sirva y les
recomiendo que lo toquen a dos guitarras para que se escuche mejor.
********************************************************************


        D     G     D     G     D             A7    D
e|--2-3-5-5--10---7-5-2--10---7-5-2-----2-3-5-7-3-5-2------|
B|--3-5-7-7--12---8-7-3--12---8-7-3-----3-5-7-8-5-7-3------|
G|---------------------------------------------------------|
D|---------------------------------------------------------|
A|---------------------------------------------------------|
E|---------------------------------------------------------|


        D     G     D     G     D             A7    D
e|--2-3-5-5--10---7-5-2--10---7-5-2-----2-3-5-7-3-5-2------|
B|--3-5-7-7--12---8-7-3--12---8-7-3-----3-5-7-8-5-7-3------|
G|---------------------------------------------------------|
D|---------------------------------------------------------|
A|---------------------------------------------------------|
E|---------------------------------------------------------|

       D      G    D      G    D
Entre santos peregrinos, peregrinos
     A7   G      D
Residan este lugar
            D     G    D     G    D
y anqué es pobre la morada, la morada
        A7    G     D
se las doy de corazón.

      D      G    D   G    D
Cantemos con alegría, alegría
       A7    D    G
todos al considerar
       D      G      D  G    D
Que Jesús, José y María y María
        A7     G        D
Nos vivieron hoy a honrrar.

            
            
Suggest correction
Creating personal tab
Creating personal tab
You can edit any tab online and save it as your Personal.

You can edit, replace or remove any tab part or add personal notes – all changes will be seen only by you.

Personal tabs can be accessed anytime from any device, even offline.
Learn more »
Give kudos to tab author, rate the tab!
1 2 3 4 5
comments
print report bad tab
guest
Wanna post a correction for this tab? Suggest correction