Oops, an error
Loading. Please wait.

Rodolfo El Reno tab

version 2
version 2

Whole song

417 views 1 this week
no commentswrite comment
1 2 3 4 5
3 more votes to show rating
add to favorites
×
Save as Personal and add changes to this tab that will be seen only by you. Learn more ›
×
You can save this tab as Personal to edit and correct it or add notes. All changes will be seen only by you. Learn more »
launch autoscroll
font size
0
reset
how to read this tab
guitar tuner
edit
Autoscroll
slow
fast
+/-
esc
set tempo
stop
hola a todos, esta tab no es tan dificil solo hay que dedicarle
tiempo y beran que suena bien, ademas es una cancion
para la epoca de navidad :lol


Rodolfo el Reno.


AQUI ESTA LA CANCION EN PUNTEO

Parte 1

1|---0-------3-0---------0---0---3-2---------|
2|-3-----3-0-0---3-----3---3---3-------------|
3|-----------------------------------2-------|
4|-----0-----0---0---0-----0-------0---4-----|
5|-------------------------------2-------0---|
6|-3-------3---3---3---3-------3-------------|


Parte 2

1|-----------2-0---------0---0---2-3-------|
2|-1-3---1-------3-----3---3---3-----------|
3|---------2-------------------------0-----|
4|-0-------0---0-4---4-0---0-----0-----0---|
5|-----0-----0-----0---------------------2-|
6|-----------------------------2---3-------|

1|------0-0-3-0-----------0----------------|
2|--------------3-0-3---1---3-0-3----------|
3|--------0---------------0----------------|
4|----------2-----0---------2-----0--------|
5|------3-----3-----2---3-----3-----2------|
6|--------------3-----3---------2-----3----|


Parte 3

1|-------0-2-2-2---3-3-2-0---------0---0---2-3-----------|
2|---0-3-------------------3-1---3---3---3-----------0---|
3|-2-----------2---------------2---------------2----0----|
4|---0---0---1---------0---0-2---0---------0---4---0-----|
5|---------2-----2---2---0-----------0-------------------|
6|-2---2-----------0-----------2---------2---3---3-------|


AQUI ESTA LA CANCION EN ACORDES


-PARTE A:

G                                   D
Era Rodolfo un reno, que tenia la nariz
                                       G
roja como la grana y de un brillo singular
                                    D
todos sus compañeros se reían sin parar
                                      G
y nuestro buen amigo, no paraba de llorar


-PARTE B:

C        G          C             G
Pero Navidad llegó, Santa Claus bajó
A           D       A                 D
y a Rodolfo eligió, por su singular nariz
G                                    D
tirando del trineo, fue Rodolfo sensación
                                       G
y desde aquel momento toda burla se acabó

(luego de esto se vuelve a tocar como se indica abajo)

-PARTE A
-PARTE B
-PARTE B


espero que les aya gustado y que la ayan podido sacar
y ¡FELIZ NAVIDAD!


CHAOOOOO!  :ROCK!
Suggest correction
Creating personal tab
Creating personal tab
You can edit any tab online and save it as your Personal.

You can edit, replace or remove any tab part or add personal notes – all changes will be seen only by you.

Personal tabs can be accessed anytime from any device, even offline.
Learn more »
Give kudos to tab author, rate the tab!
1 2 3 4 5
comments
print report bad tab
guest
Wanna post a correction for this tab? Suggest correction