Oops, an error
Loading. Please wait.

Fernet Con Coca tab

33 views 1 this week
no commentswrite comment
1 2 3 4 5
3 more votes to show rating
add to favorites
×
Save as Personal and add changes to this tab that will be seen only by you. Learn more ›
×
You can save this tab as Personal to edit and correct it or add notes. All changes will be seen only by you. Learn more »
launch autoscroll
font size
0
reset
how to read this tab
guitar tuner
edit
Autoscroll
slow
fast
+/-
esc
set tempo
stop
bueno esta cancion en tablatura es
muy facil , yo utiliza un tipo de escalas
mas facil , cualquier duda escribanme

comenzamos!!!!!

introduccion (bajo en guitarra , muy facil)
 
1--------------------------
2-----------------------
3--------------------------
4----------------0--------
5-------0--3-3-3------------
6----3----1----------------

QUE PASA MI QUERIDA.....
6-------------------------------------------
5-------------------------------------------
4--------------------------------------------
3--------------------------------------------
2------------3----     3--0--3--3--3--0-3-0--3
1---2---2--0----2-2--0------------------------

DE REPENTE.........
6------------------------------------------
5-------------------------------------------
4-------------------------------------------
3-------------------------------------------
2-------------3--------3--0--3--3--3-0-3-0--3-
1--2----2---0----2-2--0----------------------

HAY MUCHO HUMO .......
6---------------------------------------------
5---------------------------------------------
4----------------------------------------------
3-----------------------------------------
2----3----3----0--3------3--1--1--0--0--3------1
1-------0-----------0---2------------------0-----3

QUE PASA......
6--------------------------------------
5--------------------------------------
4---------------------------------------
3----------------------------------------
2---------3------3----3---3--3----3--0--3
1---2--0----2--0---0-----------0----------

TODA LA CANCION ES IGUAL 
ESTA MUY FACIL
VIVA VILMA PALMA
Suggest correction
Creating personal tab
Creating personal tab
You can edit any tab online and save it as your Personal.

You can edit, replace or remove any tab part or add personal notes – all changes will be seen only by you.

Personal tabs can be accessed anytime from any device, even offline.
Learn more »
Give kudos to tab author, rate the tab!
1 2 3 4 5
comments
print report bad tab
guest
Wanna post a correction for this tab? Suggest correction