Oops, an error
Loading. Please wait.

Soy Un Loco tab

17 views 1 this week
no commentswrite comment
1 2 3 4 5
3 more votes to show rating
add to favorites
×
Save as Personal and add changes to this tab that will be seen only by you. Learn more ›
×
You can save this tab as Personal to edit and correct it or add notes. All changes will be seen only by you. Learn more »
launch autoscroll
font size
0
reset
how to read this tab
guitar tuner
edit
Autoscroll
slow
fast
+/-
esc
set tempo
stop
ESTA ES UNA TRANSCRIPCION DE UNA CANCION MUY BUENA
LA ESCUCHE EN UN MP3 DE 
MUY BUENA PAGINA , BORREN LOS MP3 DESPUES
DE ESCUCHARLA.
AHORA SI!!!!!!
COMENZEMOS , ESTA ES UNATRANSCRIPCION MUY SENCILLA
SOLO PARA DIVERTIRNOS UN RATO.
ESTO ES LO Q SE ESCUCHA EN LA CANCION
SE ACOMPAÑA CON LOS ACORDES:
                   Gm A# F C
1----------------------------------------------------X2
2----------------------------------------------------
3--9---7----9--7----------------9-9-7-9-7-----7------
4--------------------10-10---7-------------10---10----
5----------------------------------------------------
6-----------------------------------------------------

QUIZAS ESTABA EQUIVOCADO.....
1-----------------------------------------------------
2----------6-------------------------------------------
3---7HP9------9---5----7---5----------------------------------
4------------------------------7-----------------------
5-----------------------------------------------------
6-----------------------------------------------------

SERA MEJOR PEDIR PERDON
1-----------------------------------------------------
2-----------------6------------------------------------
3--------7HP9--9-------9--7----------------------------------
4---7--------------------------10-------------------------
5---------------------------------------------------
6----------------------------------------------------

PODRAN MIS BESOS CAMBIAR ALGO

1------------------------------------------------------
2---------8-8---8HP10-8-8---------8--------------------------
3--7HP9-------9------------9--7-9-----9--7------------------
4--------------------------------------------10--------
5------------------------------------------------------
6------------------------------------------------------

Y SIGUE EL SOLO  Q NO ES MUY PRECISO PERO AI SE VA , SE REPITE UNA
PARTE DEL INTRO Y SE TOCA ESTO MUY RAPIDO
1--------------------------7--8--7--7--8-7----7--------------
2-------------------6--------------------   8----8-7-8-------
3---------7-----9-------9------------------------------7-----
4------------------------------------------------------------
5------------------------------------------------------------
6------------------------------------------------------------

Y ESO ES TODO MUY SENCILLO!!!!!!!!
DEDICADO PARA LILLYBETH DEL 3J Q SE Q NUNCA
LO SUPO PERO TE AMO.
SE DESPIDEUN ROKERO DEAGUA DULCE 

            
            
Suggest correction
Creating personal tab
Creating personal tab
You can edit any tab online and save it as your Personal.

You can edit, replace or remove any tab part or add personal notes – all changes will be seen only by you.

Personal tabs can be accessed anytime from any device, even offline.
Learn more »
Give kudos to tab author, rate the tab!
1 2 3 4 5
comments
print report bad tab
guest
Wanna post a correction for this tab? Suggest correction