Oops, an error
Loading. Please wait.

Voy A Vos tab

version 1
version 1

Whole song

228 views 1 this week
no commentswrite comment
1 2 3 4 5
2 more votes to show rating
add to favorites
×
Save as Personal and add changes to this tab that will be seen only by you. Learn more ›
×
You can save this tab as Personal to edit and correct it or add notes. All changes will be seen only by you. Learn more »
launch autoscroll
font size
0
reset
how to read this tab
guitar tuner
edit
Autoscroll
slow
fast
+/-
esc
set tempo
stop
Transcripcion realizada por Leo Vecchietti.

Intro: D# Gm G Fm D#
1)
D#                                   Gm
No pienso quedarme otra vez sin hablar
                                G#  Fm
que tiene de malo perder la razon
           D#
lo hago bien.

1)estoy en tus manos no quiero salir
te pido que aprietes me vas a sentir no hace mal

2)
Gm                        G
Si quieres subime mostrame otro lugar
Gm                                G
sin dudar te dire llevame hasta el final
             Fm            D#
pero no me dejes sin tu amor


3)
D#
Si vos te vas no queda nada
Gm
tocame y sobran las palabras
G# Fm        D#
 Voy? voy a vos si vos te vas no queda nada
Gm                             G# Fm         D#
me acostumbraste tanto a tu calor voy a vos

Solo piano:
e--------------------------------10--------|
B-----8-11----8-11----8-11-11b13----11-----|
G--10------10------10----------------------|
D------------------------------------------|
A------------------------------------------|
E------------------------------------------|

e--------------------------------|
B--11-11-9-9-8---------8-11----8-|
G--------------10---10------10---|
D--------------------------------|
A--------------------------------|
E--------------------------------|

D#                                Gm
Si se hace dificil poderte explicar
                                  G#
la luna es testigo de mi enfermedad
Fm      D#
voy a vos

2)
3)

Solo Guitarra:
e---------------------------------------------------------------|
B-----------------------11-11--9-9-8----------------------------|
G-3/8-8-8/10-8-10-10/12--------------10--5-5-8-8/10-10b12-12p10-|
D---------------------------------------------------------------|
A---------------------------------------------------------------|
E---------------------------------------------------------------|

            
            
Suggest correction
Creating personal tab
Creating personal tab
You can edit any tab online and save it as your Personal.

You can edit, replace or remove any tab part or add personal notes – all changes will be seen only by you.

Personal tabs can be accessed anytime from any device, even offline.
Learn more »
Give kudos to tab author, rate the tab!
1 2 3 4 5
comments
print report bad tab
guest
Wanna post a correction for this tab? Suggest correction