Oops, an error
Loading. Please wait.

Christmas Time Is Here tab

version 1
version 1

Whole song

  • Includes tab, chords, and words for whole song. Pl... Show more

Interactive

319 views 21 this week
no commentswrite comment
1 2 3 4 5
3 more votes to show rating
add to favorites
×
Save as Personal and add changes to this tab that will be seen only by you. Learn more ›
×
You can save this tab as Personal to edit and correct it or add notes. All changes will be seen only by you. Learn more »
launch autoscroll
font size
0
reset
how to read this tab
guitar tuner
edit
Autoscroll
slow
fast
+/-
esc
set tempo
stop
Author
Difficulty
About this tab version
Includes tab, chords, and words for whole song. Play slowly in free time, thus no measures. Was this info helpful? Yes No
This is my arrangement for solo guitar of this Christmas Classic. Hope you like it!


[Verse 1]

    Fmaj7              Eb9-5            Fmaj7              Eb9-5    
e|--12---8----8----5---5------------8---12--8---8-----5----5-----|
B|--10-----------------6---8--8/10------10-----------------6-----|
G|--9------------------6----------------9------------------6-----|
D|---------------------5-----------------------------------5-----|
A|--8-------8----------6----------------8-----8------------6-----|
E|-----------------------5---------------------------------5-----|
    Christmas time is  here             Happi - ness  and  cheer

    Bm7-5       Bbdim   Am7              Abm7    Gm7                Fmaj7
e|--5---------------------------------------------------------------3---------------|
B|--6---6---6---5-------8----5-----5-----4-------3----6---3-----6---5-------------8-|
G|--7-----------6-------5----------------4-------3------------------5----8--8/10----|
D|--------------5-------5----------------4-------3----------------------------------| 
A|----------------------------------------------------------------------------------|
E|--7-----7-----6-------5------5---------4---0---3------3-----------5---------------|
    Fun for all that    chil-dren  call  their   favorite time  of  year

[Verse 2]

    Fmaj7              Eb9-5            Fmaj7              Eb9-5    
e|--12---8----8----5---5------------8---12--8---8-----5----5------|
B|--10-----------------6---8--8/10------10-----------------6------|
G|--9------------------6----------------9------------------6------|
D|---------------------5-----------------------------------5------|
A|--8-------8----------6----------------8-----8------------6------|
E|---------------------5----------------------------------------5-|
    Snowflakes in the air               Carols  ev - ery   where

    Bm7-5       Bbdim   Am7               Abm7    Gm7                Fmaj7
e|--5----------------------------------------------------------------3-----|
B|--6---6---6---5-------8--5------5-------4-------3----6---3-----6---5-----|
G|--7-----------6-------5-----------------4-------3------------------5-----|
D|--------------5-------5-----------------4-------3------------------------| 
A|-------------------------------------------------------------------------|
E|--7-----7-----6-------5-----5-----------4---0---3------3-----------5-----|
    Olden Times and     an-cient  rhymes, of     love and dreams to  share

[Verse 3]

    Dbmaj7                Gb9-5       Dbmaj7              Gb9-5
e|--8------4------4---8---8-----------8----4-----4---8----8--------|
B|--6---------------------9-----------6-------------------9--------|
G|--5---------------------9-----------5-------------------9--------|
D|-----------------------------------------------------------------|
A|--4---------4-----------9-----------4-------4-----------9--------|
E|------------------------------8-------------------------------8--|
    Sleigh bells  in  the air         Beau-ty    ev -ery  where
    

     Am7                D                  Gm7          Db9#5   C6
e|--8------5-----5--8---8--5---5-----5-----6---3-----3---5------5------------8-|
B|--5-------------------7------------------3---------3---4------5-----8-8/10---|
G|--5-------------------7------------------3---------3---4------5--------------|
D|-----------------------------------------------------------------------------|
A|----------------------5----5---------------------------4------3--------------|
E|--5---------5----------------------------3------3----------------------------|
    Yule - tide  by the fire - side  And   joy-ful   mem-ries   there


[Verse 4]

    Fmaj7              Eb9-5              Fmaj7                 Eb9-5    
e|--12---8----8----5---5--------------8---12----8-----8----5----5-------|
B|--10-----------------6-----8--8/10------10--------------------6-------|
G|--9------------------6------------------9---------------------6-------|
D|---------------------5----------------------------------------5-------|
A|--8-------8----------6------------------8--------8------------6-------|
E|------------------------5------------------------------------------5--|
    Christmas time is here                We'll be    draw-ing  near

    Bm7-5       Bbdim   Am7              Abm7    Gm7                    Fmaj7
e|--5-------------------------------------------------------------------3----|
B|--6---6---6---5-------8----5----5------4-------3----6---3--------6----5----|
G|--7-----------6-------5----------------4-------3----------------------5----|
D|--------------5-------5----------------4-------3---------------------------| 
A|---------------------------------------------------------------------------|
E|--7-----7-----6-------5------5---------4---0---3------3---------------5----|
    Oh that we  could   al - ways see    such    spir-it  through  the  year


    Bm7-5       Bbdim   Am7              Abm7    Gm7                    Fmaj7
e|--5-------------------------------------------------------------------3----||
B|--6---6---6---5-------8----5----5------4-------3----6---3--------6----5----||
G|--7-----------6-------5----------------4-------3----------------------5----||
D|--------------5-------5----------------4-------3---------------------------|| 
A|---------------------------------------------------------------------------||
E|--7-----7-----6-------5------5---------4---0---3------3---------------5----||
    Oh that we  could   al - ways see    such    spir-it  through  the  year




************************************

| x   Dead note
| g   Grace note
| (n) Ghost note
| h   Hammer-on
| p   Pull-off
| r   Release
| >   Accented note
| t   Tapping
| b   Bend
| br  Bend release
| pb  Pre-bend
| pbr Pre-bend release
| /   Slide up
| \   Slide down
| ~   Vibrato
| s   Slap
| P   Pop
| PM  Palm mute
| TR  Trill
| N   Tremolo

************************************

            
            
Suggest correction
Creating personal tab
Creating personal tab
You can edit any tab online and save it as your Personal.

You can edit, replace or remove any tab part or add personal notes – all changes will be seen only by you.

Personal tabs can be accessed anytime from any device, even offline.
Learn more »
Give kudos to tab author, rate the tab!
1 2 3 4 5
comments
print report bad tab
guest
You may want to rate the tab now too:
select rating
Wanna post a correction for this tab? Suggest correction