Oops, an error
Loading. Please wait.

Christmastime Is Here Tab

18,606 views 615 this week
no commentswrite comment
1 2 3 4 5
x 15
add to favorites
launch autoscroll
font size
0
reset
how to read this tab
guitar tuner
Autoscroll
slow
fast
+/-
esc
set tempo
stop
Help us to improve Ultimate-Guitar.com Take our survey!
×
Author
Difficulty
intermediate
     ^                      ^       ^                      ^     
E ||-11------------------|--4----|--11------------------|--4----|
B ||-12-12-12------------|--5----|--12-12-12------------|--5----|
G ||o13----------13------|--5----|--13----------13------|--5----|
D ||o14------------------|--4----|--14------------------|--4----|
A ||---------------------|-------|----------------------|-------|
E ||---------------------|-------|----------------------|-------|

  ^                      ^           ^          ^                      ^     
--4-------------------|----------------------|----------------------|------||
--5--5--5-----4-------|--7--4--4-----3-------|--2--5--2-----5-------|--7---||
--6-----------5-------|--4-----------3-------|--2-----2-------------|--8--o||
--------------5-------|--4-----------3-------|--2-----2-------------|--9--o||
--------------0-------|----------------------|--------2-------------|--7---||
--6-------------------|--4-----------3-------|--2-------------------|------||

  ^                      ^       ^                      ^     
--7-----------7-------|--7----|--7-----------8-------|--7----|
--8--8--8-------------|--8----|--8--8--8-------------|--8----|
--9-------------------|--8----|--9-------------------|--8----|
--10------------------|--7----|--10------------------|--7----|
----------------------|-------|----------------------|-------|
----------------------|-------|----------------------|-------|

  ^                      ^                      ^                      ^     
--7--4--4-----7-------|--7--4--4-----5-------|--5--2--2-----4-------|--4----|
--4-------------------|--4-------------------|--2-------------------|--2----|
--4-------------------|--4-------------------|--2-------------------|--2----|
----------------------|--3-------------------|----------------------|-------|
----------------------|----------------------|----------------------|--2----|
--4-------------------|----------------------|--2-------------------|-------|

  ^                      ^       ^                      ^     
--11------------------|--4----|--11------------------|--4----|
--12-12-12------------|--5----|--12-12-12------------|--5----|
--13----------13------|--5----|--13----------13------|--5----|
--14------------------|--4----|--14------------------|--4----|
----------------------|-------|----------------------|-------|
----------------------|-------|----------------------|-------|

  ^                      ^           ^          ^                      ^
--4-------------------|----------------------|----------------------|-------||
--5--5--5-----4-------|--7--4--4-----3-------|--2--5--2-----5-------|--7----||
--6-----------5-------|--4-----------3-------|--2-----2-------------|--8----||
--------------5-------|--4-----------3-------|--2-----2-------------|--9----||
--------------0-------|----------------------|--------2-------------|--7----||
--6-------------------|--4-----------3-------|--2-------------------|-------||
Suggest correction
comments
print report bad tab
guest
You may want to rate the tab now too:
select rating
Wanna post a correction for this tab? Suggest correction