Oops, an error
Loading. Please wait.

Look In Her Eyes Tab

1,556 views 3 this week
no commentswrite comment
1 2 3 4 5
please rate
add to favorites
launch autoscroll
font size
0
reset
how to read this tab
guitar tuner
Tab Pro tools
  • play this tab
  • loop segment
  • change instrument
  • show fretboard
  • metronome
×
Best way to learn
"Look In Her Eyes"
Autoscroll
slow
fast
+/-
esc
set tempo
stop
Contributor
----------------------------------------------------------------------------
                         Look in he eyes - Vince Neil
----------------------------------------------------------------------------

Tuning:normal

This tab isnt completey correct but still sounds ok, just interpret into your own 
cant beleive no one has tabbed this yet its such an amazog solo!)

e|-------------------------14-15-17-18-17-14------15/17-14-----------------|
B|----------------13-15-16-------------------15------------15/17-13--------|
G|-------12-14-15---------------------------------------------------12-----|
D|-12-13-------------------------------------------------------------------|
A|-------------------------------------------------------------------------|
E|-------------------------------------------------------------------------|

e|--------------17---------------------14h15h17p15p14----------------------|
B|-15-11----17b----17r-15-17--13h15h17----------------17p15p13-15----------|
G|-------10----------------------------------------------------------------|
D|-------------------------------------------------------------------------|
A|-------------------------------------------------------------------------|
E|-------------------------------------------------------------------------|

e|-------------------------14-15-17-18-17-14------15/17-14-----------------|
B|----------------13-15-16-------------------15------------15/17-13--------|
G|-------12-14-15---------------------------------------------------12-----|
D|-12-13-------------------------------------------------------------------|
A|-------------------------------------------------------------------------|
E|-------------------------------------------------------------------------|

e|--------------17-----------14-15-17b~~~~-----------------------14-15-17--|
B|-15-11----17b----17r-15-17----------------------------13-15-16-----------|
G|-------10-------------------------------------12-14-15-------------------|
D|----------------------------------------12-13----------------------------|
A|-------------------------------------------------------------------------|
E|-------------------------------------------------------------------------|

e|-18-17-14----17p14----15p12----17p14----------14-15-14-------------------|
B|----------15-------15-------13-------15-15-17----------17-15-------------|
G|--------------------------------------------------------------17-16-14---|
D|-------------------------------------------------------------------------|
A|-------------------------------------------------------------------------|
E|-------------------------------------------------------------------------|

e|-------------------------------------------------------------------------|
B|-------------------15----------------------15---------13-----------------|
G|----------14-16-17----17-16-14----------14----12---12----10--------------|
D|-17-16-17----------------------17-16--------------------------0*---------|
A|-------------------------------------------------------------------------|
E|-------------------------------------------------------------------------|
 N.H----|   P.H                                         *massive whammy dive
e|-------------------------------------------------------------------------|
B|----------15b--------------------13b-12h13p12p10-------------------------|
G|---5-3---------14br-12h14p12-11~-----------------14p12p11h12-------------|
D|-5------------------------------------------------------------12-12p10-10|
A|-------------------------------------------------------------------------|
E|-------------------------------------------------------------------------|
                                           T        T        T
e|----------------------------------------15p13p10-15p13p10-14p13p10-------|
B|-------------------------------------------------------------------------|
G|---------------------------------12-11-----------------------------------|
D|-12p10-10-x5------------------10-----------------------------------------|
A|-------------12-10-9--9-10-12--------------------------------------------|
E|-------------------------------------------------------------------------|
    T        T        T      T         T                          P.H
e|-14p13p10-----------------------------------------------------------10---|
B|----------15p13p10-15p13p10-----------------------------------------13b--|
G|---------------------------14p12p10-14p12p10---12-10-12-10---x4-10-------|
D|-----------------------------------------------------------12------------|
A|-------------------------------------------------------------------------|
E|-------------------------------------------------------------------------|

e|-------------------------------------------------------------------------|
B|------------------Get a laser gun and a pitch bend pedal!----------------|
G|-------------------------------------------------------------------------|
D|-------------------------------------------------------------------------|
A|-------------------------------------------------------------------------|
E|-------------------------------------------------------------------------|

e|-15----15/16----16\15---15/16----16/20----20\16----16\15----13br13-------|
B|-------------------------------------------------------------------15-13-|
G|----17-------18-------17------18-------22-------18-------17--------------|
D|-------------------------------------------------------------------------|
A|-------------------------------------------------------------------------|
E|-------------------------------------------------------------------------|

e|-------------------------------------------------------------------------|
B|-12-------------------------------------/13-/15-----Not sure about-------|
G|----14-12-11--------------------/11-/14-------------this part------------|
D|-------------14-12-10-9-10--/12------------------------------------------|
A|-------------------------------------------------------------------------|
E|-------------------------------------------------------------------------|

e|-------------------------------------------------------------------------|
B|-------------------------------------------------------------------------|
G|-11-7---9b--12-8---10brb-13-9---11b--14p10----12p10----15p11----13p11----|
D|------7----------8------------9------------10-------10-------11-------11-|
A|-------------------------------------------------------------------------|
E|-------------------------------------------------------------------------|

e|-------------------------------------------------------------------------|
B|-------------------------------------------------------------------------|
G|-etc---------------------------------------------------------------------|
D|-------------------------------------------------------------------------|
A|-------------------------------------------------------------------------|
E|-------------------------------------------------------------------------|
comments
We did not receive enough feedback on this tab! Please rate:
print report bad tab
1 2 3 4 5
I want to post or [tab]
guest
You may want to rate the tab now too:
select rating
Please do not post tabs as comments. Select "correction" instead!