Oops, an error
Loading. Please wait.

Daydream tab

version 1
version 1

Whole song

Interactive

5,843 views 1 this week
2 commentsread comments
1 2 3 4 5
1 last vote to show rating
add to favorites
×
Save as Personal and add changes to this tab that will be seen only by you. Learn more ›
×
You can save this tab as Personal to edit and correct it or add notes. All changes will be seen only by you. Learn more »
launch autoscroll
font size
0
reset
how to read this tab
guitar tuner
backing track
0:00
0:00
edit
Autoscroll
slow
fast
+/-
esc
set tempo
stop
Author
Difficulty
                                Daydream                                  


Guitar1
                                                          
E||---------------------------|--------------------------|
B||---------------------------|--------------------------|
G||---------------------------|--------------------------|
D||---------------------------|-----3--1-----------------|
A||--3-1----1--5--3--1-----1--|--5--------5--3--1-----1--|
E||------5--------------5-----|--------------------5-----|


                                                  
|---------------13--10--------|------------------|
|-----------11----------------|------------------|
|*------10--------------------|------------------|
|*--12------------------------|------------------|
|-----------------------------|------------------|
|-----------------------------|------------------|


                                                   
--15-18-17-15-13-17-15-17-13-17-15-13-11-15-13-11-|
--------------------------------------------------|
--------------------------------------------------|
--------------------------------------------------|
--------------------------------------------------|
--------------------------------------------------|


                                                             
--10-13-11-10----11-10--------------|-----------8--5--------|
--------------13-------13-11--------|--------6--------------|
------------------------------------|-----5-----------------|
------------------------------------|--7--------------------|
------------------------------------|-----------------------|
------------------------------------|-----------------------|


                                                                      
------------------|--11-15-13-11-10-13-11-13-10-13-11-10----11-10----|
------------------|--------------------------------------13-------13-|
------------------|--------------------------------------------------|
------------------|--------------------------------------------------|
------------------|--------------------------------------------------|
------------------|--------------------------------------------------|


                                                                  
------------------------------------|--------------13--10--------|
--11-10-----------------------------|----------11----------------|
--------12-11-10--------------------|------10--------------------|
-----------------13-12-10-----------|--12------------------------|
--------------------------13--------|----------------------------|
------------------------------------|----------------------------|


                                                                      
------------------|--15-18-17-15-13-17-15-17-13-17-15-13-11-15-13-11-|
------------------|--------------------------------------------------|
------------------|--------------------------------------------------|
------------------|--------------------------------------------------|
------------------|--------------------------------------------------|
------------------|--------------------------------------------------|


                                                             
--10-13-11-10----11-10--------------|-----------8--5--------|
--------------13-------13-11--------|--------6--------------|
------------------------------------|-----5-----------------|
------------------------------------|--7--------------------|
------------------------------------|-----------------------|
------------------------------------|-----------------------|


                                                                      
------------------|--11-15-13-11-10-13-11-13-10-13-11-10----11-10----|
------------------|--------------------------------------13-------13-|
------------------|--------------------------------------------------|
------------------|--------------------------------------------------|
------------------|--------------------------------------------------|
------------------|--------------------------------------------------|


                                                                          
------------------------------------|--9-10-9----------------------------|
--11-10-----------------------------|---------11-10-8--------------------|
--------12-11-10--------------------|-----------------10-9---------------|
-----------------13-12-10-----------|-----------------------11--8--7--5--|
--------------------------13--------|------------------------------------|
------------------------------------|------------------------------------|


                                                       
-------------------|----------------------------------|
-------------------|----------------------------------|
-------------------|--------------6-----6-7---6-7-9-6-|
--7----------------|--5-7-8-5-7-8---7-8-----8---------|
-------------------|----------------------------------|
-------------------|----------------------------------|


                     
--------------------|
--------------------|
--9b-------9--------|
--------------------|
--------------------|
--------------------|


                                                                     
--9-9-9-9-9-9-10-10-10-10-10-10-12-12-12-12-12-12-13-13-13-13-13-13-|
--------------------------------------------------------------------|
--------------------------------------------------------------------|
--------------------------------------------------------------------|
--------------------------------------------------------------------|
--------------------------------------------------------------------|


                                                               
--18-18-18-18-18-18-17-17-17-17-17-17-15-15-15-15-15-15-13----|
--------------------------------------------------------------|
--------------------------------------------------------------|
--------------------------------------------------------------|
--------------------------------------------------------------|
--------------------------------------------------------------|


                                                
--9---------------9----12----------------12----|
----11---------11---11----14----------14----14-|
-------12-9-12---------------15-12-15----------|
-----------------------------------------------|
-----------------------------------------------|
-----------------------------------------------|


                                                              
--15----------------15----21--------|------------------------|
-----17----------17----17-----------|------------------------|
--------18-15-18--------------------|--14--------------13-14-|
------------------------------------|------------------------|
------------------------------------|------------------------|
------------------------------------|------------------------|


                                                                    
--------------------------------------|----------------------------|
------------14-----14-15--14--12--14--|------------------------17--|
--16--14-16-----16--------------------|--14----------------18------|
--------------------------------------|----------------19----------|
--------------------------------------|----------------------------|
--------------------------------------|----------------------------|


                                                              
--17--------------------------------|------------------------|
------17----------------------------|------------------------|
----------18------------------------|--14--------------13-14-|
--------------19--------------------|------------------------|
------------------19--16------------|------------------------|
--------------------------17--------|------------------------|


                                                            
--------------------------------------|--14----------------|
------------14-----14-15--14--12--14--|--------------------|
--16--14-16-----16--------------------|--------------------|
--------------------------------------|--------------------|
--------------------------------------|--------------------|
--------------------------------------|--------------------|


                                                                
--15--------17---------||--------------------------------------|
-----------------------||--------18----------------------------|
----------------------*||--15----------15----14----15----17----|
----------------------*||--------------------------------------|
-----------------------||--------------------------------------|
-----------------------||--------------------------------------|


                                                            
--------------------|--------------------15----------------|
--------------------|--18----15----------------16--15------|
--------------------|------------17--15----------------17--|
--17----------------|--------------------------------------|
--------------------|--------------------------------------|
--------------------|--------------------------------------|


                                                   
--17p-13h-17p-13----------18p-15h-18p-15----------|
------------------15--13------------------18--15--|
--------------------------------------------------|
--------------------------------------------------|
--------------------------------------------------|
--------------------------------------------------|


                                                                    
--17----------18-17-15------|--------------------------------------|
------------------------15--|--18----------------15----18----------|
----------------------------|--------17----17----------------17----|
----------------------------|--------------------------------------|
----------------------------|--------------------------------------|
----------------------------|--------------------------------------|


                                                   
------------------------------------------15h-18--|
------------------15h-18----------15h-18----------|
----------15h-17----------15h-17------------------|
--15h-17------------------------------------------|
--------------------------------------------------|
--------------------------------------------------|


                                                   
----------15h-18--17--15--------------------------|
--15h-18------------------18--16--15------15--16--|
--------------------------------------17----------|
--------------------------------------------------|
--------------------------------------------------|
--------------------------------------------------|


                                 
--------------------------------|
--------------------------------|
--17----------------------------|
-----------------------17-------|
--------------17-18-20----18-20-|
--------------------------------|


                                                         
-----------------------------------------------17-18-20-|
-----------------------------18-19-20-17-18-20----------|
-----------17-------17-19-20----------------------------|
--17-19-20----19-20-------------------------------------|
--------------------------------------------------------|
--------------------------------------------------------|


                                                                
--18-17----18p17----17h18-------17-18-|------------------------|
--------20-------20-------20b---------|--20r-------20----17b---|
--------------------------------------|------------------------|
--------------------------------------|------------------------|
--------------------------------------|------------------------|
--------------------------------------|------------------------|


                                                   
--14-15----14----14-------------14-19-14-17-14-15-|
--------17----15----14h15----15-------------------|
--------------------------16----------------------|
--------------------------------------------------|
--------------------------------------------------|
--------------------------------------------------|


                                                         
-----14----14-------------14-17-15-14----15-14----------|
--17----15----14h15----15-------------17-------17-15-14/|
--------------------16----------------------------------|
--------------------------------------------------------|
--------------------------------------------------------|
--------------------------------------------------------|


                                                         
--19-17-15----------17-15-14----------15-14-12----------|
-----------19-17-15----------17-15-14----------15-14-12-|
--------------------------------------------------------|
--------------------------------------------------------|
--------------------------------------------------------|
--------------------------------------------------------|


                                                   
--14-12-10----------------------------------------|
-----------14-12-10-------------------------------|
--------------------9-12-11-9/7-11-9-7/6-9-7-6----|
-----------------------------------------------9b-|
--------------------------------------------------|
--------------------------------------------------|


                                            
-------------------------------------------|
-------------------------------------------|
-------------------------------11h14p11h14-|
--9-------------11-11h14p11h14-------------|
--------9-12-14----------------------------|
-------------------------------------------|


                                                            
--------------10h14p10/9h12p10h10p9/7----------------------|
--10h14p10h14-------------------------10p8p7-10p8h10p8p7---|
---------------------------------------------------------9-|
-----------------------------------------------------------|
-----------------------------------------------------------|
-----------------------------------------------------------|


                                                        
----------------------------|--------------------------|
--8-------------------------|--------------7--8--------|
----9p7/6-7--9--7--6--------|-----6--7--9--------9--7--|
----------------------9--7--|--9-----------------------|
----------------------------|--------------------------|
----------------------------|--------------------------|


                                         
--10-----------7--------------7--12--7--|
------7--8--------7--8-----8------------|
------------9-----------9---------------|
----------------------------------------|
----------------------------------------|
----------------------------------------|


                                            
--10--7--8-----7---7-------8-12-10-8----10-|
------------10---8------10-----------12----|
---------------------11--------------------|
-------------------------------------------|
-------------------------------------------|
-------------------------------------------|


                                                           
--8-------8-----------------------------------------------|
----12-10---12-10-9---------------------------------------|
--------------------12-11-9---------------9-11-12-9-11-12-|
----------------------------12-10-9-10-12-----------------|
----------------------------------------------------------|
----------------------------------------------------------|


                                        
--------------------12-14-15r----------|
--10-12-13-12-13-15--------------------|
---------------------------------------|
---------------------------------------|
---------------------------------------|
---------------------------------------|


                                       
--15--14--12-----------------14h15p---|
--------------15b-15r-----17-------17-|
--------------------------------------|
--------------------------------------|
--------------------------------------|
--------------------------------------|


                                           
--14----14-------14-12b-12b---14h15p14----|
-----17-------15----17-----------------17-|
-----------16-----------------------------|
------------------------------------------|
------------------------------------------|
------------------------------------------|


                                                               
--15----14-15-17p15p14----15p14-------14----------------------|
-----17----------------17-------17-15----17-15-13-------------|
--------------------------------------------------17-16-14-16b|
--------------------------------------------------------------|
--------------------------------------------------------------|
--------------------------------------------------------------|


                          
-------------------------|
-------------------------|
--------16--14--16-------|
-------------------------|
-------------------------|
-------------------------|


                                                            
--7h8p7--------------8-10-12-10-8--------------------------|
--------10-9-8-10-12--------------12-11-10-----------------|
-------------------------------------------12-11-9---------|
---------------------------------------------------12-10-9-|
-----------------------------------------------------------|
-----------------------------------------------------------|


                                                       
----------------------------------------8-10-12-10-12-|
------------------------8-10-12-8-10-12---------------|
--------9-11-12-9-11-12-------------------------------|
--10-12-----------------------------------------------|
------------------------------------------------------|
------------------------------------------------------|


                                                                     
--14-10-12-14-12-14-15-12-14-15-12-14-15-12-14-15-17-14-15-17-15-14-|
--------------------------------------------------------------------|
--------------------------------------------------------------------|
--------------------------------------------------------------------|
--------------------------------------------------------------------|
--------------------------------------------------------------------|


                                                
--17-18-15-17-18-17-18-20-20--20-20b-----20r---|
-----------------------------------------------|
-----------------------------------------------|
-----------------------------------------------|
-----------------------------------------------|
-----------------------------------------------|


                                                  
--22~---------13--10--------|--------------------|
----------11----------------|--27/---------------|
------10--------------------|--------------------|
--12------------------------|--------------------|
----------------------------|--------------------|
----------------------------|--------------------|


                                                   
--15-18-17-15-13-17-15-17----17-15-13-11-15-13-11-|
--------------------------18----------------------|
--------------------------------------------------|
--------------------------------------------------|
--------------------------------------------------|
--------------------------------------------------|


                                                          
--10-13-11-10-8-11-10-8-6--------|-----------8--5--------|
---------------------------------|--------6--------------|
---------------------------------|-----5-----------------|
---------------------------------|--7--------------------|
---------------------------------|-----------------------|
---------------------------------|-----------------------|


                                                                    
------------------|--11-15-13-11-10-13-11-13-10-13-11-10-8-11-10-8-|
------------------|------------------------------------------------|
------------------|------------------------------------------------|
------------------|------------------------------------------------|
------------------|------------------------------------------------|
------------------|------------------------------------------------|


                                                         
--6-5-3-1------------------|--------------13--10--------|
----------4-3-1------------|----------11----------------|
----------------2-3--------|------10--------------------|
---------------------------|--12------------------------|
---------------------------|----------------------------|
---------------------------|----------------------------|


                                                                      
------------------|--15-18-17-15-13-17-15-17----17-15-13-11-15-13-11-|
------------------|--------------------------18----------------------|
------------------|--------------------------------------------------|
------------------|--------------------------------------------------|
------------------|--------------------------------------------------|
------------------|--------------------------------------------------|


                                                          
--10-13-11-10-8-11-10-8-6--------|-----------8--5--------|
---------------------------------|--------6--------------|
---------------------------------|-----5-----------------|
---------------------------------|--7--------------------|
---------------------------------|-----------------------|
---------------------------------|-----------------------|


                                                                    
------------------|--11-15-13-11-10-13-11-13-10-13-11-10-8-11-10-8-|
------------------|------------------------------------------------|
------------------|------------------------------------------------|
------------------|------------------------------------------------|
------------------|------------------------------------------------|
------------------|------------------------------------------------|


                                                                 
--6-5-3-1------------------|--9-10-9----------------------------|
----------4-3-1------------|---------11-10-8--------------------|
----------------2-3--------|-----------------10-9---------------|
---------------------------|-----------------------11--8--7--5--|
---------------------------|------------------------------------|
---------------------------|------------------------------------|


                                                       
-------------------|----------------------------------|
-------------------|----------------------------------|
-------------------|--------------6-----6-7---6-7-9-6-|
--7----------------|--5-7-8-5-7-8---7-8-----8---------|
-------------------|----------------------------------|
-------------------|----------------------------------|


                     
--------------------|
--------------------|
--9b-------9--------|
--------------------|
--------------------|
--------------------|


                                                                     
--9-9-9-9-9-9-10-10-10-10-10-10-12-12-12-12-12-12-13-13-13-13-13-13-|
--------------------------------------------------------------------|
--------------------------------------------------------------------|
--------------------------------------------------------------------|
--------------------------------------------------------------------|
--------------------------------------------------------------------|


                                                               
--18-18-18-18-18-18-17-17-17-17-17-17-15-15-15-15-15-15-13----|
--------------------------------------------------------------|
--------------------------------------------------------------|
--------------------------------------------------------------|
--------------------------------------------------------------|
--------------------------------------------------------------|


                                                
--9---------------9----12----------------12----|
----11---------11---11----14----------14----14-|
-------12-9-12---------------15-12-15----------|
-----------------------------------------------|
-----------------------------------------------|
-----------------------------------------------|


                                                              
--15----------------15----21--------|------------------------|
-----17----------17----17-----------|------------------------|
--------18-15-18--------------------|--14--------------13-14-|
------------------------------------|------------------------|
------------------------------------|------------------------|
------------------------------------|------------------------|


                                                                    
--------------------------------------|----------------------------|
------------14-----14-15--14--12--14--|------------------------17--|
--16--14-16-----16--------------------|--14----------------18------|
--------------------------------------|----------------19----------|
--------------------------------------|----------------------------|
--------------------------------------|----------------------------|


                                                              
--17--------------------------------|------------------------|
------17----------------------------|------------------------|
----------18------------------------|--14--------------13-14-|
--------------19--------------------|------------------------|
------------------19--16------------|------------------------|
--------------------------17--------|------------------------|


                                                            
--------------------------------------|--14----------------|
------------14-----14-15--14--12--14--|--------------------|
--16--14-16-----16--------------------|--------------------|
--------------------------------------|--------------------|
--------------------------------------|--------------------|
--------------------------------------|--------------------|


                                                             
--15--------17--------|------------------|------------------|
----------------------|------------------|------------------|
----------------------|------------------|------------------|
----------------------|------------------|------------------|
----------------------|------------------|------------------|
----------------------|------------------|------------------|


                                                         
------------------|------------------|------------------|
------------------|------------------|------------------|
------------------|------------------|------------------|
------------------|------------------|------------------|
------------------|------------------|------------------|
------------------|------------------|------------------|


                                                         
------------------|------------------|------------------|
------------------|------------------|------------------|
------------------|------------------|------------------|
------------------|------------------|------------------|
------------------|------------------|------------------|
------------------|------------------|------------------|


                                                         
------------------|------------------|------------------|
------------------|------------------|------------------|
------------------|------------------|------------------|
------------------|------------------|------------------|
------------------|------------------|------------------|
------------------|------------------|------------------|


                                                         
------------------|------------------|------------------|
------------------|------------------|------------------|
------------------|------------------|------------------|
------------------|------------------|------------------|
------------------|------------------|------------------|
------------------|------------------|------------------|


                                                         
------------------|------------------|------------------|
------------------|------------------|------------------|
------------------|------------------|------------------|
------------------|------------------|------------------|
------------------|------------------|------------------|
------------------|------------------|------------------|


                                                         
------------------|------------------|------------------|
------------------|------------------|------------------|
------------------|------------------|------------------|
------------------|------------------|------------------|
------------------|------------------|------------------|
------------------|------------------|------------------|


                                                         
------------------|------------------|------------------|
------------------|------------------|------------------|
------------------|------------------|------------------|
------------------|------------------|------------------|
------------------|------------------|------------------|
------------------|------------------|------------------|


                                            
------------------|------------------------|
------------------|------------------------|
------------------|--14--------------13-14-|
------------------|------------------------|
------------------|------------------------|
------------------|------------------------|


                                                                    
--------------------------------------|----------------------------|
------------14-----14-15--14--12--14--|------------------------17--|
--16--14-16-----16--------------------|--14----------------18------|
--------------------------------------|----------------19----------|
--------------------------------------|----------------------------|
--------------------------------------|----------------------------|


                                                              
--17--------------------------------|------------------------|
------17----------------------------|------------------------|
----------18------------------------|--14--------------13-14-|
--------------19--------------------|------------------------|
------------------19--16------------|------------------------|
--------------------------17--------|------------------------|


                                                            
--------------------------------------|--14----------------|
------------14-----14-15--14--12--14--|--------------------|
--16--14-16-----16--------------------|--------------------|
--------------------------------------|--------------------|
--------------------------------------|--------------------|
--------------------------------------|--------------------|


                                                                        
--12-12-10-12-10-14-12-10----12-10----------10-12-|--------------------|
--------------------------14-------14-12-14-------|--14~---------------|
--------------------------------------------------|--------------------|
--------------------------------------------------|--------------------|
--------------------------------------------------|--------------------|
--------------------------------------------------|--------------------|


                                                 
--10-10-9---------------------------------------|
-----------12--10--9----------------------------|
----------------------11--9---------------------|
-----------------------------12--11--9--11--12--|
------------------------------------------------|
------------------------------------------------|


                                                        
----------------------------|--------------------------|
----------------------------|--------------------------|
--10~-----------------------|--------------------------|
----------------12--12--11--|--9------------11----9----|
----------------------------|--------------------------|
----------------------------|--------------------------|


                                                            
--------------------|------------------|------------------||
--------------------|------------------|------------------||
--------------------|------------------|------------------||
--------------------|------------------|------------------||
--12----------------|------------------|------------------||
--------------------|------------------|------------------||



            
            
Suggest correction
Creating personal tab
Creating personal tab
You can edit any tab online and save it as your Personal.

You can edit, replace or remove any tab part or add personal notes – all changes will be seen only by you.

Personal tabs can be accessed anytime from any device, even offline.
Learn more »
Give kudos to tab author, rate the tab!
1 2 3 4 5
comments
print report bad tab
2 comments total.
0 reply
stromblitz 10 Oct 09, 2011 06:05 AM

dude you kick ass just for tabbing this, much more with the fact that you're right on xcept for a few things but keep it up

0 reply
bone_yetti88 10 May 07, 2012 04:15 PM

Great tab. More accurate then the Guitar pro file.

guest
You may want to rate the tab now too:
select rating
Wanna post a correction for this tab? Suggest correction