Oops, an error
Loading. Please wait.

Invincible chords

46 views 1 this week
no commentswrite comment
1 2 3 4 5
3 more votes to show rating
add to favorites
×
Save as Personal and add changes to this tab that will be seen only by you. Learn more ›
×
You can save this tab as Personal to edit and correct it or add notes. All changes will be seen only by you. Learn more »
launch autoscroll
font size
0
reset
transpose
0
reset
simplify chords
display chords
guitar tuner
edit
Autoscroll
slow
fast
+/-
esc
set tempo
stop
Author
Difficulty
About this tab version
Personal interpretation arranged on an acoustic guitar. Standard tuning and no capo. Fingerpick the acoustic intro, hard strum the rest. Read author notes in the tab for more info. Link to the studio version: https://www.youtube.com/watch?v=hjVm1_Sxdis. Was this info helpful? Yes No
Strumming Are these strumming patterns correct? Yes No
Intro (riffs) 120 bpm
1
 
 
2
 
 
3
 
 
4
 
 
5
 
 
6
 
 
7
 
 
8
 
 
9
 
 
10
 
 
11
 
Listen
Chorus 120 bpm
1
&
2
&
3
&
4
&
5
&
6
&
7
&
8
&
Listen
Title: "Invincible"
Artist: "Vinnie Vincent Invasion"
Album: "Pyro Messiah" (Guitars From Hell)
Tempo: Allegro moderato (120 bpm)
Method: Hard Strumming

* This is my interpretation made on an acoustic guitar, arranged for a solo vocalist.
* The song was very difficult to tab out with simple chords, so keep in mind that it's going to sound 
  slightly off-key with the original recording, but should complement a solo vocal very nicely.
* The main solo part is not tabbed out due to a lack of simple chord structure.

[Chords]
Em/A  x0200x
F/A   x0321x
G     355433
A5    577xxx
B5    799xxx
C5    8-10-10-x-x-x
G5/D  x500xx
A5/E  x77xxx
Am    5775xx
G/A   x0543x (alternative: x5543x)
F#    xx5433

[Intro]
(Acoustic guitar starts playing)
Em/A F/A G

(Electric guitar starts playing riffs)
e|----------------------------|----------------------------|
B|----------------------------|----------------------------|
G|----------------------------|----------------------------|
D|----------------------------|----------------------------|
A|----------------------------|----------------------------|
E|--5--------7--8-----10------|--10----8--7--5-------------|

e|----------------------------------------|----------------------------|
B|----------------------------------------|----------------------------|
G|----------------------------------------|----------------------------|
D|----------------------------------------|----------------------------|
A|----------------------------------------|-----------7--10----7-------|
E|--5------7------8---7------5------7-----|--5--------5--8-----5-------|

e|----------------------------|----------------------------|
B|----------------------------|----------------------------|
G|----------------------------|----------------------------|
D|----------------------------|----------------------------|
A|----------------------------|----------------------------|
E|--5--------7--8s----15------|--10----8--7--5-------------|

e|----------------------------------------|
B|----------------------------------------|
G|----------------------------------------|
D|----------------------------------------|
A|----------------------------------------|
E|--5------7------8---7------5------7-----|

(Solo guitar starts playing)
B5 G5/D C5 A5 A5/E

[Verse 1]
Am
Frozen twilight leads my way down my darkest road
Am
Angel of mercy, you I beg, won't you run away first though
Am       Fmaj7           F           Em      Am
Bitches, my sonic world, useless and glowing endure
Am              Fmaj7              F           Em       Am
Inside, feel the pain I've caused, now let the story be told

[Pre-Chorus]
Em              F            G      
Father, let thy will be done
          Em          F    Em
While our world is in hell
             F           G 
You've taken away my will
             Em      Fmaj7
I will make my stand
 G            Em     F G Am G
I will make my stand
        
[Chorus]
Am           Fmaj7
I shall be invincible
F        G        Am
Power of love in my veins
Am           Fmaj7
I shall be invincible
F        G      Am      F  G  Am
Rescue my destiny and stand

[Verse 2]
Am
As though my heavy heart beats strong, love will free my soul
Am
Shackles of hate some day will be gone, and the truth I'll fight to be known
Am         Fmaj7     F             G            Am
Outrage, my apology, has turned my heart to the stone
  Am         Fmaj7        G         F           G            Am
My teary eye has seen his face one, bearing the weight for so long

[Pre-Chorus]
     Em            F            G      
From ashes, I will rise again
       Em             F     Em
Though you'll want to know
                F             G
In this world I sign my name
                            Em 
Mine and their treck be known
F         G        F         G       
Let it be written, let it be known

[Chorus]
Am           Fmaj7
I shall be invincible
F        G        Am
Power of love in my veins
Am           Fmaj7
I shall be invincible
F          G            G/A     
Mighty and strong I will stand

[Main Solo]
(The chord progression seems to start with F# and is very erratic 
 and quite difficult to tab out due to heavy guitar distortion)
   
[Chorus]
Am           Fmaj7
I shall be invincible
F        G        Am
Power of love in my veins
Am           Fmaj7
I shall be invincible
F          G            Am
Mighty and strong I will stay

Am           Fmaj7 
I shall be invincible
F          G         Am
Is this my destiny's plan
Am           Fmaj7 
I shall be invincible
F        G        Am
Power of love in my veins
F   G  Am  G             F  
Mighty and strong I will stay

Am Fmaj7 F G Am 

[Outro]
       Am        Fmaj7  
Inside will be invincible
F         G         Am    G   Fmaj7 F# Am
Power and love in my veins

            
            
Suggest correction
Creating personal tab
Creating personal tab
You can edit any tab online and save it as your Personal.

You can edit, replace or remove any tab part or add personal notes – all changes will be seen only by you.

Personal tabs can be accessed anytime from any device, even offline.
Learn more »
Give kudos to tab author, rate the tab!
1 2 3 4 5
comments
print report bad tab
guest
You may want to rate the tab now too:
select rating
Wanna post a correction for this tab? Suggest correction