Oops, an error
Loading. Please wait.

Abre Los Cielos tab

96 views 1 this week
no commentswrite comment
1 2 3 4 5
3 more votes to show rating
add to favorites
×
Save as Personal and add changes to this tab that will be seen only by you. Learn more ›
×
You can save this tab as Personal to edit and correct it or add notes. All changes will be seen only by you. Learn more »
launch autoscroll
font size
0
reset
how to read this tab
guitar tuner
edit
Autoscroll
slow
fast
+/-
esc
set tempo
stop
intro
E--------------------7-----------------7----------------15---
B-8/10--8-----8--10----10--8----8--10---10/12-12-13-15----15-
G----------7-------------------7-----------------------------
D------------------------------------------------------------
A------------------------------------------------------------
E------------------------------------------------------------


E----------------------------
B---13-12-13-----------------
G------------12-14-12--------
D----------------------------
A----------------------------
E----------------------------


ETROFA 1:

C                           G
Padre quiero estar en tu presencia

C                       G
Nesecito estar cerca de Ti

Am                                D   Dsus4 D
Señor realmente quiero ver tu gloria

Am               C              D
Que el fuego del cielo caiga en mi

CORO:


             G
Puedes mi pasion sentir

            Em
Y el hambre ver en mi

             C  D    C
Sabes que te ahelo a Ti

         G
No mas barreras

             Em
quita las tinieblas

           C         D
Rompe este duro corazon

C      B   C                       G
Oye mi clamor ... ¡abre los cielos hoy!

INTRO X1

Estrofa 2:


C                      G
En todo lugar se esta oyendo

C                          G
El reino de Dios se acerca ya

Am                           D       Dsus4  D
Puedes escuchar la desesperación

Am               C             D
La tierra se ha unido en un clamor


coro x 1


Am                                D   Dsus4 D
Señor realmente quiero ver tu gloria

Am               C              D
Que el fuego del cielo caiga en mi

Coro x 2

 Final: INTRo x2

            
            
Suggest correction
Creating personal tab
Creating personal tab
You can edit any tab online and save it as your Personal.

You can edit, replace or remove any tab part or add personal notes – all changes will be seen only by you.

Personal tabs can be accessed anytime from any device, even offline.
Learn more »
Give kudos to tab author, rate the tab!
1 2 3 4 5
comments
print report bad tab
guest
Wanna post a correction for this tab? Suggest correction