Oops, an error
Loading. Please wait.

Not Alright By Me tab

version 1
version 1

Whole song

Interactive

1,304 views 18 this week
no commentswrite comment
1 2 3 4 5
2 more votes to show rating
add to favorites
×
Save as Personal and add changes to this tab that will be seen only by you. Learn more ›
×
You can save this tab as Personal to edit and correct it or add notes. All changes will be seen only by you. Learn more »
launch autoscroll
font size
0
reset
how to read this tab
guitar tuner
edit
Autoscroll
slow
fast
+/-
esc
set tempo
stop
Author
Intro + verse
  D         G       A    D
|---------------------------------------------------------------------|
|-10-10-10------------2--3--------------------------------------------|
|-11-9------4---4-----2--2--------------------------------------------|
|-0--0------0---0----2---0--------------------------------------------|
|-------------------0-------------------------------------------------|
|-----------3--3-3----------------------------------------------------|

End of verse ("and that's not alright be me")
   G     A     D
|--------------------------------------------------------------------|
|-----------2--3-----------------------------------------------------|
|----0-----2---2-----------------------------------------------------|
|---0-0---2----0-----------------------------------------------------|
|--------0-----------------------------------------------------------|
|--3-----------------------------------------------------------------|

VERSE

D                G
Something hit me deep
             A                D
On my sunset walk through the streets
D               G
I could see and hear
               A       D
But I couldn’t feel or breathe
     D               G
From tuning out this static world
     A                 D
I’ve lost the sense of peace
           G   A          D  
And that’s not alright by me

VERSE

    D            G
The LA Times and Channel 5
    A            D
And New York Magazine
     D        
They stain my soul
    G               A      D
And I know you know what I mean
     D              G
They tear apart the hopeful heart
       A                D
Til it doesn’t bleed or dream
           G     A        D  
And that’s not alright by me

CHORUS

G                               D               
Pull on the rope that lifts the sun back to the sky
G                     D    
Hold a hand. Cry on a shoulder.
G                      D               
Listen in the wind and open up your eyes.
    A
And feel again.
A
Feel again.

VERSE

D               G
Where the roads cross
    A           D
And time stands still
D             G
I’m frozen in my tracks
A          D
Against my will
    D              G
The streetlight is dimming
             A           D
And it won’t shine again until
            G     A        D
I say It’s not alright by me

G     A        D
Not alright by me
G     A        D
Not alright by me
G     A        D
Not alright by me
G     A        D
Not alright by me

            
            
Suggest correction
Creating personal tab
Creating personal tab
You can edit any tab online and save it as your Personal.

You can edit, replace or remove any tab part or add personal notes – all changes will be seen only by you.

Personal tabs can be accessed anytime from any device, even offline.
Learn more »
Give kudos to tab author, rate the tab!
1 2 3 4 5
comments
print report bad tab
guest
You may want to rate the tab now too:
select rating
Wanna post a correction for this tab? Suggest correction