Oops, an error
Loading. Please wait.

Rundans Tab

version 1
version 1

Whole song

Interactive

349 views 1 this week
1 commentread comment
1 2 3 4 5
3 more votes to show rating
add to favorites
launch autoscroll
font size
0
reset
how to read this tab
guitar tuner
×
Best way to learn
"Rundans"
Autoscroll
slow
fast
+/-
esc
set tempo
stop
			"Rundans" by Vintersorg
			From the album "Till Fjälls"
			Transcribed solely by Knut Farstad
			Comments, etc: reffie-x@online.no

	Standard E Tuning

	; = Arpeggiate

----------------------------------------|
----------------------------------3--5--|
------0-----------0-----0------5--4--5--|
----7-----7-----4-----5------2----------|
--5-----------2-----3------0------------|
----------------------------------------|
 Intro [Acoustic Guitar]             x4                                       

------------------------------------------------------------------------------
------------------------------------------------------------------------------
--------------------------------------------2---5-4---2-----------------------
---7-----3-----2--7----3---5--7-----3----5--2---5-4---2-----------------------
---7-----3-----2--7----3---5--7-----3----5--0---3-2---0-----------------------
---5-----1-----0--5----1---3--5-----1----3------------------------------------
 Verse [accompanied by a barely audible acoustic guitar]     x4               

---------------------------------------|--------------------------------------
----------------------------------3-5--|---------------------------------3--5-
-------0-----------0-----0-----5--4-5--|------0-----------0-----0-----5--4--5-
-----7-----7-----4-----5-----2---------|----7-----7-----4-----5-----2-------2-
---5-----------2-----3-----0-----------|--5-----------2-----3-----0-----------
---------------------------------------|--------------------------------------
                                                                            ;
Suggest correction
Give kudos to tab author, rate the tab!
1 2 3 4 5
comments
print report bad tab
1 comment total.
0 reply
Thornspawnprodu 10 Nov 24, 2014 02:48 PM

----------------------------------------|
----------------------------------------|
------0-----------0-----0------5--4--5--|
----7-----7-----4-----5------2----5--7--|
--5-----------2-----3------0------------|
----------------------------------------|

guest
You may want to rate the tab now too:
select rating
Wanna post a correction for this tab? Suggest correction