Oops, an error
Loading. Please wait.

Breaking Up My Bones tab

version 1
version 1

Whole song

838 views 30 this week
no commentswrite comment
1 2 3 4 5
x 3
add to favorites
×
Save as Personal and add changes to this tab that will be seen only by you. Learn more ›
×
You can save this tab as Personal to edit and correct it or add notes. All changes will be seen only by you. Learn more »
launch autoscroll
font size
0
reset
how to read this tab
guitar tuner
edit
Autoscroll
slow
fast
+/-
esc
set tempo
stop
Author
Difficulty
Vinyl Theatre
“Breaking Up My Bones”

Tabbed by: SPAZ64 kid.loughran@gmail.com

(Credit to Justin Starr [JulietsCrying] for the Main solo and outro solo)

Tuning: Standard (EADGBe)
Light Distortion Used


0:04                         0:06
e|-9---9--9--9----------------7---7--7--7-----------------|
B|-10--10-10-10---------------9---9--9--9-----------------|
G|-11--11-11-11---------------9---9--9--9--(9-9-9-9)------|
D|-11--11-11-11---------------9---9--9--9—-(9-9-9-9)------|
A|-9---9--9--9----------------7---7--7--7--(7-7-7-7)------|
E|--------------------------------------------------------|
      F#m                          E

0:09 – 0:18 (Pre-Verse)
e|-5--5--5----------------|-5--5--5-----------------------|
B|-7--7--7----------------|-7--7--7-----------------------|
G|-7--7--7---7-7-7-7-7----|-7--7--7---7-7-7-7-7-----------|
D|-7--7--7---7-7-7-7-7----|-7--7--7---7-7-7-7-7-----------|
A|-5--5--5---5-5-5-5-5----|-5--5--5---5-5-5-5-5-----------|
E|------------------------|-------------------------------|
          D                         D

e|-9--9--9----------------|-7--7--7-----------------------|
B|-10-10-10---------------|-9--9--9-----------------------|
G|-11-11-11--1111111111---|-9--9--9---9-9-9-9-9-----------|
D|-11-11-11—-1111111111---|-9--9--9---9-9-9-9-9-----------|
A|-9--9--9---9-9-9-9-9----|-7--7--7---7-7-7-7-7-----------|
E|------------------------|-------------------------------|
      F#m                           D

0:19 – 0:36 (Verse 1)
No Guitar

0:37 – 0:54 (Chorus 1) Play Twice
e|-5--5--5----------------|-5--5--5-----------------------|
B|-7--7--7----------------|-7--7--7-----------------------|
G|-7--7--7---7-7-7-7-7----|-7--7--7---7-7-7-7-7-----------|
D|-7--7--7---7-7-7-7-7----|-7--7--7---7-7-7-7-7-----------|
A|-5--5--5---5-5-5-5-5----|-5--5--5---5-5-5-5-5-----------|
E|------------------------|-------------------------------|
          D                         D

e|-9--9--9----------------|-7--7--7-----------------------|
B|-10-10-10---------------|-9--9--9-----------------------|
G|-11-11-11--1111111111---|-9--9--9---9-9-9-9-9-----------|
D|-11-11-11—-1111111111---|-9--9--9---9-9-9-9-9-----------|
A|-9--9--9---9-9-9-9-9----|-7--7--7---7-7-7-7-7-----------|
E|------------------------|-------------------------------|
      F#m                           D

0:55 – 1:12 (Verse 2)
No Guitar

1:13 – 1:32 (Chorus 2) Play Twice
e|-5--5--5----------------|-5--5--5-----------------------|
B|-7--7--7----------------|-7--7--7-----------------------|
G|-7--7--7---7-7-7-7-7----|-7--7--7---7-7-7-7-7-----------|
D|-7--7--7---7-7-7-7-7----|-7--7--7---7-7-7-7-7-----------|
A|-5--5--5---5-5-5-5-5----|-5--5--5---5-5-5-5-5-----------|
E|------------------------|-------------------------------|
          D                         D

e|-9--9--9----------------|-7--7--7-----------------------|
B|-10-10-10---------------|-9--9--9-----------------------|
G|-11-11-11--1111111111---|-9--9--9---9-9-9-9-9-----------|
D|-11-11-11—-1111111111---|-9--9--9---9-9-9-9-9-----------|
A|-9--9--9---9-9-9-9-9----|-7--7--7---7-7-7-7-7-----------|
E|------------------------|-------------------------------|
      F#m                           D


1:33 – 2:08(Bridge)
No Guitar

2:09 – 2:26 (Solo 1) Credit to Justin Starr for the solo tab

e|-----------------------------------------------------------------|
B|-10b-10b-10b------10b-10b-10b------------------------------------|
G|--------------11~--------------11¬--------9h11-------------------|
D|-------------------------------------9h11------------------------|
A|-----------------------------------------------------------------|x2 
E|-----------------------------------------------------------------|

e|-9---9---9---9---9--9--9---12-12-12-12--9-9-9-9-9-9-9--12-12-12-12-|
B|-10--10--10--10--10-10-10--10-10-10-10--9-9-9-9-9-9-9--9--9--9--9--|
G|-11--11--11--11--11-11-11--11-11-11-11--9-9-9-9-9-9-9--9--9--9--9--|
D|-------------------------------------------------------------------|
A|-------------------------------------------------------------------| 
E|-------------------------------------------------------------------|



e|-14p12-----------14p12--------------------------------------------|
B|-------14p12-----------14p12--------------------------------------|
G|--------------14-------------14-14b-14----------------------------|
D|------------------------------------------------------------------|
A|------------------------------------------------------------------|x2
E|------------------------------------------------------------------|

e|-------------------------------------14--14--14--14--14--14--14--14-|
B|-----------14------------14----------17b-17b-17b-17b-17b-17b-17b-17-|
G|------11h14---------11h14---14b--14---------------------------------|
D|-11h14---------11h14------------------------------------------------|
A|--------------------------------------------------------------------|
E|--------------------------------------------------------------------|

2:27 – 2:44 (Final Chorus) Play Twice
e|-5--5--5----------------|-5--5--5-----------------------|
B|-7--7--7----------------|-7--7--7-----------------------|
G|-7--7--7---7-7-7-7-7----|-7--7--7---7-7-7-7-7-----------|
D|-7--7--7---7-7-7-7-7----|-7--7--7---7-7-7-7-7-----------|
A|-5--5--5---5-5-5-5-5----|-5--5--5---5-5-5-5-5-----------|
E|------------------------|-------------------------------|
          D                         D

e|-9--9--9----------------|-7--7--7-----------------------|
B|-10-10-10---------------|-9--9--9-----------------------|
G|-11-11-11--1111111111---|-9--9--9---9-9-9-9-9-----------|
D|-11-11-11—-1111111111---|-9--9--9---9-9-9-9-9-----------|
A|-9--9--9---9-9-9-9-9----|-7--7--7---7-7-7-7-7-----------|
E|------------------------|-------------------------------|
      F#m                           D

2:45 – 3:09 (Outro Solo) Credit to Justin Starr for the solo tab

(Play this part twice)
e|--------------------------------------------------------------------|
B|--------------------------------------------------------------------|
G|-----------------------------------1-1-1-1-1------------------------|
D|-----------------------------------2-2-2-2-2------------------------|
A|--0--2p0--2h4-2p0-2h4-2p0-----0-2--2-2-2-2-2---0-2p0-2h4-2p0-2h4-2p0|
E|2--------------------------2-------0-0-0-0-0-2----------------------| 

(After second time play this)
e|--------------------------------------------------------------------|
B|--------------------------------------------------------------------|
G|--------------------------------------------------------------------|
D|-2------------------------------------------------------------------|
A|---4-2-4-2-0--------------------------------------------------------|
E|--------------------------------------------------------------------|    
Suggest correction
Creating personal tab
Creating personal tab
You can edit any tab online and save it as your Personal.

You can edit, replace or remove any tab part or add personal notes – all changes will be seen only by you.

Personal tabs can be accessed anytime from any device, even offline.
Learn more »
Give kudos to tab author, rate the tab!
1 2 3 4 5
comments
print report bad tab
guest
You may want to rate the tab now too:
select rating
Wanna post a correction for this tab? Suggest correction