Oops, an error
Loading. Please wait.

Atrocity tab

329 views 1 this week
no commentswrite comment
1 2 3 4 5
1 last vote to show rating
add to favorites
×
Save as Personal and add changes to this tab that will be seen only by you. Learn more ›
×
You can save this tab as Personal to edit and correct it or add notes. All changes will be seen only by you. Learn more »
launch autoscroll
font size
0
reset
how to read this tab
guitar tuner
edit
Autoscroll
slow
fast
+/-
esc
set tempo
stop
Author
VIO-LENCE - ATROCITY
(NOTHING TO GAIN, 1993)

Riff 1. How play it? Just listen to song, and use alternative picking. Hold your left 
hand across the strings, and listen to rhythm.
e|--------------------------------|
B|--------------------------------|
G|--------------------------------|
D|--------------------------------|
A|--------------------------------|
E|xxxxx-xxxxx-xxx-xxxxx-xxxxx-xxx-|

Riff 1A.Same thing as Riff 1, but now you mute open six fret.

e|--------------------------------|
B|--------------------------------|
G|--------------------------------|
D|--------------------------------|
A|--------------------------------|
E|00000-00000-000-00000-00000-000-|

RIFF 2.Time it by your own, this riff play in same time with Riff 1A.
e|--------------------------------------------|
B|--------------------------------------------|
G|--------------------------------------------|
D|----7-------7-6----7-6-5--------------------|
A|--7-----------------------------------------|
E|-------------------------------5-6-6-5------|
                                  p.m

At 0:55 music gets more chills, and RIff 1A sounds heavier. On this moment turn you gain 
on 10 or 11. For better effect, play like this, but I tnink,
that every one, who play metal on guitar, know this trick. And use very heavy palm mute.


Riff 1B.If you want reach noise before this part, use your tremolo or floyd rose, and 
six string, on record it sound powerfull and chill to the bones.

e|--------------------------------|
B|--------------------------------|
G|--------------------------------|
D|--------------------------------|
A|22222-22222-222-22222-22222-222-|
E|00000-00000-000-00000-00000-000-|

Riff 1C.Play it in the end of the verse on eight time, and do slide in the end.

e|--------------------------------|
B|--------------------------------|
G|--------------------------------|
D|--------------------------------|
A|22222-22222-222-2-2-2-2-2-2-----|
E|00000-00000-000-0-0-0-0-0-0-12s-|

Riff 2.A.
e|--------------------|
B|--------------------|
G|--------------------|
D|--------------------|
A|7----7s8-8-7--------|
E|5----5s6-6-5--------|


RIFF 3. On every second time don't mute the triplets.
e|--------------------------------------|
B|--------------------------------------|
G|--------------------------------------|
D|----------8---------------------------|
A|7--7s8-7--6--7-5----7-7s8-7-----------|
E|5--5s6-5-----5-3----5-5s6-5-333-666---|
               p.m               p.m

 Riff 4.
e|----------------------------------------------|
B|----------------------------------------------|
G|----------------------------------------------|
D|-10-----9----12-------------------------------|
A|-8------7----10--7-7s8-7-------7-7s8-7--------|
E|-----------------5-5s6-5-5-5-5-5-5s6-5-5-5-5--|
                           p.m           p.m

 Riff 4.A
e|--------------------------------------------------|
B|--------------------------------------------------|
G|--------------------------------------------------|
D|-10-----9----12-----------------------------------|
A|-8------7----10--7-7s8-7--------------------------|
E|-----------------5-5s6-5-5-5-5-5-5-5-5-5-5-5------|
                         p.m           p.m

Riff 5.(solo rhythm)
e|-----------------------|
B|-----------------------|
G|-----------------------|
D|---------------8--8----|
A|7----7----7----6--6----|
E|5-55-5-55-5-55---------|

Riff 5.A (solo rhythm)
e|------------------------|
B|------------------------|
G|------------------------|
D|---------------10--10---|
A|9----9----9----8---8----|
E|7-77-7-77-7-77----------|

Order

(0:09) Riff 1 x 4 (on track it play all intro to 0:55).
(0:17) Riff 1A x 4
(0:24) Riff 1A x 8 and Riff 2 x 2 played same time, 2 guitars.
(0:55) Riff 1B x 8 and Riff 2 x 2 played same time, 2 guitars (played with more gain)
(1:26) Riff 2A x 4
(1:42)Riff 3 x 4
(1:56)Riff 1B x 7/1Cx1 and Riff 2 x 2 played same time, 2 guitars.
(2:26)Riff 3 x 4
(2:40)Riff 1B x 7/1Cx1 and Riff 2 x 2 played same time, 2 guitars.
(3:09)Riff 3 x 4
(3:23)Riff 4 x 1/Riff 4A x 1
(3:37)Solo over Riff 5 x 4/Solo over Riff 5A x 4
(4:05)Riff 1B x 7/1Cx1 and Riff 2 x 2 played same time, 2 guitars
(4:33)Riff 3 x 4
End
Suggest correction
Creating personal tab
Creating personal tab
You can edit any tab online and save it as your Personal.

You can edit, replace or remove any tab part or add personal notes – all changes will be seen only by you.

Personal tabs can be accessed anytime from any device, even offline.
Learn more »
Give kudos to tab author, rate the tab!
1 2 3 4 5
comments
print report bad tab
guest
You may want to rate the tab now too:
select rating
Wanna post a correction for this tab? Suggest correction