Oops, an error
Loading. Please wait.

Tds Take It As You Will tab

448 views 1 this week
no commentswrite comment
1 2 3 4 5
2 more votes to show rating
add to favorites
×
Save as Personal and add changes to this tab that will be seen only by you. Learn more ›
×
You can save this tab as Personal to edit and correct it or add notes. All changes will be seen only by you. Learn more »
launch autoscroll
font size
0
reset
how to read this tab
guitar tuner
edit
Autoscroll
slow
fast
+/-
esc
set tempo
stop
Author
.  - palm mute           /  - slide up to
\  - slide down to       ~  - vibrato
h  - hammer on           b  - Bend
p  - pull off            Suffixes for bend
t  - tap                 f  - full bend    h - half bend
ph - pinched harmonic    q  - quarter bend t - tap bend
*  - see comment         ^  - Hold bend    r release bend
x  - Staccato            ~  - vibrato bend
,  - slight palm mute    () - ghost note, sustained note
"  - tremolo note        tr - Trill


Tuning E A D G B E


Intro
|----------------|
|----------------|
|----------------|
|----------------|
|-2-8-7-6-5-6-7\-|
|-0--------------|
    . . . . .


Riff 1
||------------------------------------------|
||------------------------------------------|
||------------------------------------------|
||------------------------0h1p0-------------|
||------------------0h1p0-------0h1p0-------|
||-0000000000000000-------------------0h1p0-|
   ................

 |------------------------------------------|
 |------------------------------------------|
 |------------------------0h1p0-------------|
 |------------------0h1p0-------0h1p0-------|
 |------------------------------------0h1p0-|
 |-0000000000000000-------------------------|
   ................

 |------------------------------------------|
 |------------------------------------------|
 |------------------------------------------|
 |------------------------0h1p0-------------|
 |------------------0h1p0-------0h1p0-------|
 |-0000000000000000-------------------0h1p0-|
   ................

 |---------------------------------||
 |---------------------------------||
 |---------------------------------||
 |---------------------------------||
 |-----------3---4-----------4---5-||
 |-00000000001---2-00000000002---3-||   x3
   ..........      ..........



 |--------------------------------|
 |--------------------------------|
 |--------------------------------|
 |--------------------------------|
 |-----------5---6-2-8-7-6-5-6-7\-|
 |-00000000003---4-0--------------|   x1
   ..........        . . . . .



Riff 2
||-----------------------------------------------------------------|
||-----------------------------------------------------------------|
||-----------------------------------------------------------------|
||---------------------------------------------------5\4-----------|
||---------------------------------------------------3\2---4/5-3---|
||-0000300000003000000030000-2-3-5-00003000000030000-----0-2/3-1---|
   ......................... . . . .................     .

 |-----------------------------------------------------------------||
 |-----------------------------------------------------------------||
 |-----------------------------------------------------------------||
 |-------------------------------------------------3-3-------------||
 |-------------------------------------------------1-1-------5-4-5-||
 |-0000300000003000000030000-2-3-5-0000300000003000----------3-2-3-||   x1
   ......................... . . . ................


Riff 3
||-----------------------------------------------------------------|
||-----------------------------------------------------------------|
||-----------------------------------------------------------------|
||---------------------------------------------------5\4-----------|
||---------------------------------------------------3\2---4/5-3---|
||-0000300000003000000030000-2-3-5-00003000000030000-----0-2/3-1---|
   ......................... . . . .................     .

 |-----------------------------------------------------------------||
 |-----------------------------------------------------------------||
 |-----------------------------------------------------------------||
 |-----------------------------------------------------------------||
 |-----------------------------------------------------------------||
 |-0000300000003000000030000-2-3-5-00003000000030006-6-6-6-6-5-3-5-||   x2
   ......................... . . . ................. . . . . . . .


Riff 4
|-----------------------------------------------------------------|
|-----------------------------------------------------------------|
|-----------------------------------------------------------------|
|---------------3---------------3---------------3-----------------|
|-----------3---1-----------3---1-----------3---1---1-0---0-------|
|-0-0-0-0-0-1-0---0-0-0-0-0-1-0---0-0-0-0-0-1-0---0-----3---2-3-1-|   x2
  . . . . .   .   . . . . .   .   . . . . .   .   .     .   . .


Riff 5
|----------------------------------|
|----------------------------------|
|----------------------------------|
|-22225222333363334444744455558555-|
|----------------------------------|
|----------------------------------|   x2


Riff 6
|-----------------------------------------------------------------|
|-----------------------------------------------------------------|
|-----------------------------------------------------------------|
|---------------------------------9-------9-------3-3-------------|
|-2-------3-------4-------5-------7-------7-------1-1-------5-4-5-|
|-0-------1-------2-------3---------------------------------3-2-3-|   x1



Riff 3      x2
Riff 4      x2
Riff 5      x2
Riff 6      x1



Riff 7
||-----------------------------------------------------------------|
||-----------------------------------------------------------------|
||-----------------------------------------------------------------|
||-3---------------4-------5-------3-------------------------------|
||-1---------------2-------3-------1---------------------------3---|
||-----000000000000----0000----0000----0000000000000-2-3-2-3-0-1---|
       ............    ....    ....    ............. . . . .

 |-----------------------------------------------------------------|
 |-----------------------------------------------------------------|
 |-----------------------------------------------------------------|
 |-3---------------4-------5-------3---------------------------3---|
 |-1---------------2-------3-------1-----------------------1-2-----|
 |-----000000000000----0000----0000----0000000000000-2-3-0---------|
       ............    ....    ....    ............. . . .

 |-----------------------------------------------------------------|
 |-----------------------------------------------------------------|
 |-----------------------------------------------------------------|
 |-3---------------4-------5-------3-------------------------------|
 |-1---------------2-------3-------1---------------------------3---|
 |-----000000000000----0000----0000----0000000000000-2-3-2-3-0-1---|
       ............    ....    ....    ............. . . . .

 |-----------------------------------------------------------------||
 |-----------------------------------------------------------------||
 |---------------------------------------------------------10-10-10||
 |-3---------------4-------5-------7---------------8-------8--8--8-||
 |-1---------------2-------3-------5---5555555555556---6666--------||
 |-----000000000000----0000----0000--------------------------------||   x1
       ............    ....    ....    ............    ....


|----------------|
|----------------|
|----------------|
|----------------|
|-2-8-7-6-5-6-7\-|
|-0--------------|  x1
    . . . . .



Riff 1 (Under solo)      x2



Riff 7 (Under solo)
||-----------------------------------------------------------------|
||-----------------------------------------------------------------|
||-----------------------------------------------------------------|
||-----------------------------------------------------------------|
||-4-------------------------5-----4-------------------------------|
||-2-2222222222222222222222223---0-2-22222222222222333355556-5-3-0-|
     ........................    .   ....................... . . .

 |-----------------------------------------------------------------|
 |-----------------------------------------------------------------|
 |-----------------------------------------------------------------|
 |-----------------------------------------------------------------|
 |-4-------------------------5-----4---------------2---2---2---4/5-|
 |-2-2222222222222222222222223---0-2-222222222222220---0---0---2/3-|
     ........................    .   ..............

 |-----------------------------------------------------------------|
 |-----------------------------------------------------------------|
 |-----------------------------------------------------------------|
 |-----------------------------------------------------------------|
 |-4-------------------------5-----4-------------------------------|
 |-2-2222222222222222222222223---0-2-22222222222222333355556-5-3-0-|
     ........................    .   ....................... . . .

 |-----------------------------------------------------------------||
 |-----------------------------------------------------------------||
 |-----------------------------------------------------------------||
 |-------------------------------------------------7-------5-------||
 |-4-------------------------5-----4---------------5-------3-------||
 |-2-2222222222222222222222223---0-2-22222222222222----------------||   x1
     ........................    .   ..............


Riff 7b
||-----------------------------------------------------------------|
||-----------------------------------------------------------------|
||-----------------------------------------------------------------|
||-3---------------4-------5-------3-------------------------------|
||-1---------------2-------3-------1---------------------------3---|
||-----0-0-00000000----0000----0000----0000000000000-2-3-2-3-0-1---|
       . . ........    ....    ....    ............. . . . .


 |-----------------------------------------------------------------||
 |-----------------------------------------------------------------||
 |-----------------------------------------------------------------||
 |-3---------------4-------5-------3---------------------------3---||
 |-1---------------2-------3-------1------2--2--2----------1-2-----||
 |-----000000000000----0000----0000-------0--0--0--0-2-3-0---------||   x1
       ............    ....    ....       .  .  .  . . . .



Riff 7c
||-----------------------------------------------------------------|
||-----------------------------------------------------------------|
||-----------------------------------------------------------------|
||-3---------------4-------5-------3-------------------------------|
||-1---------------2-------3-------1---------------------------3---|
||-----000000000000----0000----0000----0000000000000-2-3-2-3-0-1---|
       ............    ....    ....    ............. . . . .

 |-----------------------------------------------------------------|
 |-----------------------------------------------------------------|
 |-----------------------------------------------------------------|
 |-3---------------4-------5-------3---------------------------3---|
 |-1---------------2-------3-------1-----------------------1-2-----|
 |-----000000000000----0000----0000----0000000000000-2-3-0---------|
       ............    ....    ....    ............. . . .

 |-----------------------------------------------------------------|
 |-----------------------------------------------------------------|
 |-----------------------------------------------------------------|
 |-3---------------4-------5-------3-------------------------------|
 |-1---------------2-------3-------1---------------------------3---|
 |-----000000000000----0000----0000----0000000000000-2-3-2-3-0-1---|
       ............    ....    ....    ............. . . . .

 |--------------------------------------------------------------------------||
 |--------------------------------------------------------------------------||
 |--------------------------------------------------------------------------||
 |-3---------------4-------5-------7---------------8------------------------||
 |-1---------------2-------3-------5---5555555555556---66668--8--8--3--3--3-||
 |-----000000000000----0000----0000------------------------6--6--6--1--1--1-||x1
       ............    ....    ....    ............    ....



Riff 8
||-----------------------------------------------------------------|
||-----------------------------------------------------------------|
||-----------------------------------------------------------------|
||---------2p0-2-----------2p0-2-----------2p0-2-------------------|
||---------2p0-2-----------2p0-2-----------2p0-2-----------3-3-3-3-|
||-0-000-0---------0-000-0---------0-000-0---------0-000-0-1-1-1-1-|
   . ... .         . ... .         . ... .         . ... . . . . .

 |-----------------------------------------------------------------||
 |-----------------------------------------------------------------||
 |-----------------------------------------------------------------||
 |---------2p0-2-----------2p0-2-----------2p0-2-------------------||
 |---------2p0-2-----------2p0-2-----------2p0-2-----------1-1-----||
 |-0-000-0---------0-000-0---------0-000-0---------0-000-0-----1-3-||   x3
   . ... .         . ... .         . ... .         . ... . . . . .



Riff 9
|-----------------------------------------------------------------|
|-----------------------------------------------------------------|
|---------------------------------------------------1-1---1-------|
|-----------------------------------------------2-3-1-1-3-1-3-0-3-|
|-----------------------------------------------2-3-----3---3-0-3-|
|-0-0-0-0-0-0-0-0-0-0-0-0-0-0-0-0-0-0-0-0-0-0-0-------------------|   x1
  . . . . . . . . . . . . . . . . . . . . . . .


Riff 9b
|-----------------------------------------------------------------|
|-----------------------------------------------------------------|
|-------------------------------------------------3-2-1---1-------|
|-2-----------------------------------------------3-2-1-3-1-3-0-3-|
|-2-----------------------------------------------------3---3-0-3-|
|---0-0-0-0-0-0-0-0-0-0-0-0-0-0-0-0-0-0-0-0-0-0-0-----------------|   x5
    . . . . . . . . . . . . . . . . . . . . . . .



Riff 10
||-----------------------------------------------------------------|
||-----------------------------------------------------------------|
||-----------------------------------------------------------------|
||---------2p0-2-----------4p2-4-----------5p4-5-------------------|
||---------2p0-2-----------4p2-4-----------5p4-5-----------3-3-3-3-|
||-0-000-0---------0-000-0---------0-000-0---------0-000-0-1-1-1-1-|
   . ... .         . ... .         . ... .         . ... . . . . .

 |-----------------------------------------------------------------|
 |-----------------------------------------------------------------|
 |-----------------------------------------------------------------|
 |---------2p0-2-----------4p2-4-----------5p4-5-------------------|
 |---------2p0-2-----------4p2-4-----------5p4-5-----------1-1-----|
 |-0-000-0---------0-000-0---------0-000-0---------0-000-0-----1-3-|
   . ... .         . ... .         . ... .         . ... . . . . .

 |-----------------------------------------------------------------|
 |-----------------------------------------------------------------|
 |-----------------------------------------------------------------|
 |---------2p0-2-----------4p2-4-----------5p4-5-----------10101010|
 |---------2p0-2-----------4p2-4-----------5p4-5-----------8-8-8-8-|
 |-0-000-0---------0-000-0---------0-000-0---------0-000-0---------|
   . ... .         . ... .         . ... .         . ... . . . . .

 |-----------------------------------------------------------------||
 |-----------------------------------------------------------------||
 |-----------------------------------------------------------------||
 |---------2p0-2-----------4p2-4-----------5p4-5-------------------||
 |---------2p0-2-----------4p2-4-----------5p4-5-----------1-1-----||
 |-0-000-0---------0-000-0---------0-000-0---------0-000-0-----1-3-||   x1
   . ... .         . ... .         . ... .         . ... . . . . .


Riff 11
||-----------------------------------------------------------------|
||-----------------------------------------------------------------|
||-------------------------------------------------3-2-1---1-------|
||-------------------------------------------------3-2-1-3-1-3-0-3-|
||-------------------------------------------------------3---3-0-3-|
||-0-0-0-0-0-0-0-0-0-0-0-0-0-0-0-0-0-0-0-0-0-0-0-0-----------------|
   . . . . . . . . . . . . . . . . . . . . . . . .

 |-----------------------------------------------------------------|
 |-----------------------------------------------------------------|
 |-------------------------------------------------3-2-1---1-------|
 |-2-----------------------------------------------3-2-1-3-1-3-0-3-|
 |-2-----------------------------------------------------3---3-0-3-|
 |---0-0-0-0-0-0-0-0-0-0-0-0-0-0-0-0-0-0-0-0-0-0-0-----------------|
     . . . . . . . . . . . . . . . . . . . . . . .

 |-------------------------------------||
 |-------------------------------------||
 |-------------------------------------||
 |-9-----------7-----------5-----------||
 |-7-----9-----5-----7-----3-----5-----||
 |-------7-----------5-----------3-----||
 |
 |
 |-------------------------------------||
 |-------------------------------------||
 |-------------------------------------||
 |---9-9---------7-7---------2-5-------||
 |-7---------9-5---------7-3-------2-5-||
 |-------7-10--------5-8---------3-----||   x2



Riff 3
|-----------------------------------------------------------------|
|-----------------------------------------------------------------|
|-----------------------------------------------------------------|
|---------------3---------------3---------------3-----------------|
|-----------3---1-----------3---1-----------3---1---1-0---0-------|
|-0-0-0-0-0-1-0---0-0-0-0-0-1-0---0-0-0-0-0-1-0---0-----3---2-3-1-|   x3
  . . . . .   .   . . . . .   .   . . . . .   .   .     .   . .

|-----------------------------------------------------------------|
|-----------------------------------------------------------------|
|-----------------------------------------------------------------|
|---------------3---------------3---------------3-----------------|
|-----------3---1-----------3---1-----------3---1---1-0---0---5-3-|
|-0-0-0-0-0-1-0---0-0-0-0-0-1-0---0-0-0-0-0-1-0---0-----3---2-3-1-|   x1
  . . . . .   .   . . . . .   .   . . . . .   .   .     .   .

Suggest correction
Creating personal tab
Creating personal tab
You can edit any tab online and save it as your Personal.

You can edit, replace or remove any tab part or add personal notes – all changes will be seen only by you.

Personal tabs can be accessed anytime from any device, even offline.
Learn more »
Give kudos to tab author, rate the tab!
1 2 3 4 5
comments
print report bad tab
guest
You may want to rate the tab now too:
select rating
Wanna post a correction for this tab? Suggest correction