Oops, an error
Loading. Please wait.

Call You Up tab

1,054 views 18 this week
no commentswrite comment
1 2 3 4 5
1 last vote to show rating
add to favorites
×
Save as Personal and add changes to this tab that will be seen only by you. Learn more ›
×
You can save this tab as Personal to edit and correct it or add notes. All changes will be seen only by you. Learn more »
launch autoscroll
font size
0
reset
how to read this tab
guitar tuner
edit
Autoscroll
slow
fast
+/-
esc
set tempo
stop
------------------------------------------------------------------------------------
                       Call You Up-Viola Beach (Full Guitar Tab)
------------------------------------------------------------------------------------

Tabbed by:Mark Donohue 
E-mail: mwdonohue97@gmail.com

Tuning:Standard 


Note:This version is based on the band's Crypt Studio session. The album version is slightly 
different. 

Link to video:https://www.youtube.com/watch?v=Fpn8bYe1KQk
____________________________________________________________________________________



[Intro] (0:00-0:34)

e|------------------|----------------|-----------------|----------------------|---------------------|
B|------------------|----------------|-----------------|----------------------|---------------------|
G|------------------|----------------|-----------------|----------------------|---------------------|
D|--9-9h11\7-7------|--11h14-11------|--9h11-9---------|----------------------|--9----9----9/11-----|
A|------------------|----------------|----------9------|-----9----9-9h11------|----11---11------12--|
E|------------------|----------------|-----------------|--12---12-------------|---------------------|

e|----------------|-----------------|-------------|--------------------|
B|----------------|-----------------|-------------|--------------------|
G|----------------|-----------------|-------------|--------------------|
D|--12h14-11------|--9h11-9---------|-------------|--9----9----9-9h11--|
A|----------------|----------9------|-----9-9/11--|----11---11---------|
E|----------------|-----------------|--12---------|--------------------|


[Verse 1] (1:19-1:34)

e|--------------------------|--------------------------|--------------------------|
B|--------------------------|--------------------------|--------------------------|
G|-------9------------9-----|-------9------------9-----|-------9------------9-----|
D|--9-11---11-9--9-11---11--|--9-11---11-9--9-11---11--|--9-11---11-9--9-11---11--|
A|--------------------------|--------------------------|--------------------------|
E|--------------------------|--------------------------|--------------------------|

e|----------------------------------|
B|----------------------------------|
G|-------9--------------------------|
D|--9-11---11-9--9-11-9-11-9-11-11--|
A|----------------------------------|
E|----------------------------------|


[Chorus] (1:34-2:04)

e|--------------------------|--------------------------|--------------------------|
B|--------------------------|--------------------------|--------------------------|
G|-------9------------9-----|-------9------------9-----|-------9------------9-----|
D|--9-11---11-9--9-11---11--|--9-11---11-9--9-11---11--|--9-11---11-9--9-11---11--|
A|--------------------------|--------------------------|--------------------------|
E|--------------------------|--------------------------|--------------------------|

e|----------------------------------|
B|----------------------------------|
G|-------9------------9-9-11b13r11--|
D|--9-11---11-9--9-11---------------|
A|----------------------------------|
E|----------------------------------|

e|--------------------------|--------------------------|--------------------------|-----------------------|
B|--------------------------|--------------------------|--------------------------|-----------------------|
G|-------9------------9-----|-------9------------9-----|-------9------------9-----|-----------------------|
D|--9-11---11-9--9-11---11--|--9-11---11-9--9-11---11--|--9-11---11-9--9-11---11--|--9-9-11-9-11-9--------|
A|--------------------------|--------------------------|--------------------------|----------------11-11--|
E|--------------------------|--------------------------|--------------------------|-----------------------|

e|-------------------------|
B|-------------------------|
G|-------------------------|
D|--------------9-9h11-----|
A|--11-11-11-11--------12--|
E|-------------------------|


[Bridge] (2:04-2:31)

e|------------------------|--------------------|------------------------|------------------------------|
B|------------------------|--------------------|------------------------|------------------------------|
G|------------------------|--------------------|------------------------|------------------------------|
D|--------------11h14-11--|--11-11\9-9h11-9----|------------------------|-----------9----9----9h11-----|
A|--12-12-12-12-----------|-----------------9--|-----X-9-9-9----9-9h11--|--11-11-11---11---11------12--|
E|------------------------|--------------------|--12---------12---------|------------------------------|

e|---------------------------------|------------------------|---------------------------|
B|---------------------------------|------------------------|--------12-----------------|
G|--------------------------11b13--|--pb13-13-13r11-9----9--|--11b13----pb13r11-9----9--|
D|-----------------------11--------|------------------11----|---------------------11----|
A|--12-12-12-12-12-12/14-----------|------------------------|---------------------------|
E|---------------------------------|------------------------|---------------------------|

e|-----------------------|
B|-----------------------|
G|--------------------9--|
D|--11-9-9-9-9-9-9h11----|
A|-----------------------|
E|-----------------------|


[Verse 2] (2:31-3:01)

e|--------------|------------|---------------|----------|
B|--------------|------------|---------------|----------|
G|--11b13-------|--pb13------|--pb13r11------|--11------|
D|--------------|------------|---------------|----------|
A|--------------|------------|---------------|----------|
E|--------------|------------|---------------|----------|

e|--------------------------|--------------------------|----------------------------------|
B|--------------------------|--------------------------|----------------------------------|
G|-------9------------9-----|-------9------------9-----|-------9------------9-9-11b13r11--|
D|--9-11---11-9--9-11---11--|--9-11---11-9--9-11---11--|--9-11---11-9--9-11---------------|
A|--------------------------|--------------------------|----------------------------------|
E|--------------------------|--------------------------|----------------------------------|

e|------------------------------------|
B|------------------------------------|
G|-------9--------------9-9-11b13r11--|
D|--9-11---11-9--9-9-11---------------|
A|------------------------------------|
E|------------------------------------|


[Chorus] (3:01-3:31)

e|--------------------------|--------------------------|----------------------------------|
B|--------------------------|--------------------------|----------------------------------|
G|-------9------------9-----|-------9------------9-----|-------9------------9--11b13r11---|
D|--9-11---11-9--9-11---11--|--9-11---11-9--9-11---11--|--9-11---11-9--9-11---------------|
A|--------------------------|--------------------------|----------------------------------|
E|--------------------------|--------------------------|----------------------------------|

e|--------------------------|
B|--------------------------|
G|-------9------------9-----|
D|--9-11---11-9--9-11---11--|
A|--------------------------|
E|--------------------------|

e|--------------------------|--------------------------|--------------------------|
B|--------------------------|--------------------------|--------------------------|
G|-------9------------9-----|-------9------------9-----|-------9------------9-----|
D|--9-11---11-9--9-11---11--|--9-11---11-9--9-11---11--|--9-11---11-9--9-11---11--|
A|--------------------------|--------------------------|--------------------------|
E|--------------------------|--------------------------|--------------------------|

e|----------------------------------------------|
B|----------------------------------------------|
G|----------------------------------------------|
D|--9-9--9-11-9-11-9------------------9-9-9h11--|
A|-------------------11-11--11--11-11-----------|
E|----------------------------------------------|


[Extended Chorus] (3:44-5:00)

e|--------------------|---------------------------|-------------------------------------------|
B|----------------12--|--------12-----------------|----------12--------12---------------------|
G|-------9--11b13-----|--11b13-----pb13r11-9---9--|--9-11b13-----11b13----pb13r11-9----11b13--|
D|--9h11--------------|---------------------11----|---------------------------------11--------|
A|--------------------|---------------------------|-------------------------------------------|
E|--------------------|---------------------------|-------------------------------------------|

e|------------------------------------|--------------------------------------------|
B|------------------------------------|--------------------------------------------|
G|--pb13-13-13-13-13-13-13r11-9----9--|--11b13-13-13r11-9-------------------9-9-9--|
D|------------------------------11----|-------------------11-11--11-11-9-11--------|
A|------------------------------------|--------------------------------------------|
E|------------------------------------|--------------------------------------------|

e|-------------------|-------------------|-------------------|------------------------|
B|-------------------|-------------------|-------------------|------------------------|
G|-------9-11b13r11--|-------9-11b13r11--|-------9-11b13r11--|-------9----9-11-11b13--|
D|--9-11-------------|--9-11-------------|--9-11-------------|--9-11---11-------------|
A|-------------------|-------------------|-------------------|------------------------|
E|-------------------|-------------------|-------------------|------------------------|

e|--------------------------------------------------------------|
B|--------------------------------------------------------------|
G|--pb13-13-13r11-9----9-11b13-13-13r11-9----------------9-9-9--|
D|------------------11--------------------11-11--11-9-11--------|
A|--------------------------------------------------------------|
E|--------------------------------------------------------------|

e|---------------------------|---------------------------|---------------------------|
B|--------12-----------------|--------12-----------------|--------12-----------------|
G|--11b13----pb13r11-9----9--|--11b13----pb13r11-9----9--|--11b13----pb13r11-9----9--|
D|---------------------11----|---------------------11----|---------------------11----|
A|---------------------------|---------------------------|---------------------------|
E|---------------------------|---------------------------|---------------------------|

e|---------------------------|-----------------------------|---------------------------------|
B|--------12-----------------|-----------------------------|---------------------------------|
G|--11b13----pb13r11-9----9--|--9-9-9-9-9/11-11-11-9-11-9--|--11b13-pb13r11-9-------9-9-9-9--|
D|---------------------11----|-----------------------------|------------------11-11----------|
A|---------------------------|-----------------------------|---------------------------------|
E|---------------------------|-----------------------------|---------------------------------|

e|----9-9-9-12-9--|----9-9-9-9-12-9--|----9-9--12-9--|----9-9-9-9-9--|--12/14-12--------12/14-12--------|
B|--9-------------|--9---------------|--9------------|--9------------|-----------14-14-----------14-14--|
G|----------------|------------------|---------------|---------------|----------------------------------|
D|----------------|------------------|---------------|---------------|----------------------------------|
A|----------------|------------------|---------------|---------------|----------------------------------|
E|----------------|------------------|---------------|---------------|----------------------------------|

e|--12/14-12------------------------------|--12-9-----------------------------------|
B|-----------14-12-14--12-14-12-14-12-14--|-------12-9-9-9-9------------------------|
G|----------------------------------------|------------------11b13-13-13r11-9----9--|
D|----------------------------------------|-----------------------------------11----|
A|----------------------------------------|-----------------------------------------|
E|----------------------------------------|-----------------------------------------|

e|----9-12--9------9-12-12-9-----|-------------|---------------|---------|
B|--9---------9h12-----------12--|-------------|---------------|--5------|
G|-------------------------------|--11b13------|--pb13r11------|--6------|
D|-------------------------------|-------------|---------------|--7------|
A|-------------------------------|-------------|---------------|--7------|
E|-------------------------------|-------------|---------------|--5------|



************************************

| x   Dead note
| h   Hammer-on
| r   Release
| b   Bend
| pb  Pre-bend
| /   Slide up
| \   Slide down

************************************

            
            
Suggest correction
Creating personal tab
Creating personal tab
You can edit any tab online and save it as your Personal.

You can edit, replace or remove any tab part or add personal notes – all changes will be seen only by you.

Personal tabs can be accessed anytime from any device, even offline.
Learn more »
Give kudos to tab author, rate the tab!
1 2 3 4 5
comments
print report bad tab
guest
You may want to rate the tab now too:
select rating
Wanna post a correction for this tab? Suggest correction