Oops, an error
Loading. Please wait.

Cherry Vimto tab

1,120 views 18 this week
no commentswrite comment
1 2 3 4 5
x 5
add to favorites
×
Save as Personal and add changes to this tab that will be seen only by you. Learn more ›
×
You can save this tab as Personal to edit and correct it or add notes. All changes will be seen only by you. Learn more »
launch autoscroll
font size
0
reset
how to read this tab
guitar tuner
edit
Autoscroll
slow
fast
+/-
esc
set tempo
stop
---------------------------------------------------------------------------------------------
                                Cherry Vimto-Viola Beach
---------------------------------------------------------------------------------------------

Tabbed by:Mark Donohue
Email:mwdonohue97@gmail.com

Tuning:Standard

Note:Note:This version is based on the band's Catalyst Studio session. The album version is slightly 
different. 

Link to video:https://www.youtube.com/watch?v=yKbVryoXafw

____________________________________________________________________________________________



INTRO (0:00-0:16)

e|-------------------|--------------------|-------------------|---------------------|
B|-------------------|--------------------|-------------------|---------------------|
G|--7-----------7----|---------------7----|--------------7----|--------------7h9p7--|
D|----9-7-7-7-9---9--|-----9-7-7-7-9---9--|----9-7-7-7-9---9--|----9-7-7-7-9--------|
A|-------------------|--10----------------|--7----------------|--7------------------|
E|-------------------|--------------------|-------------------|---------------------|

e|--------------------|--------------------|-------------------|---------------------|
B|--------------------|--------------------|-------------------|---------------------|
G|---------------7----|---------------7----|--------------7----|--------------7h9p7--|
D|-----9-7-7-7-9---9--|-----9-7-7-7-9---9--|----9-7-7-7-9---9--|----9-7-7-7-9--------|
A|--10----------------|--10----------------|--7----------------|--7------------------|
E|--------------------|--------------------|-------------------|---------------------|


VERSE 1 (No lead guitar)


BRIDGE (0:32-0:48)

e|--------------------|--------------------|-------------------|---------------------| 
B|--------------------|--------------------|-------------------|---------------------|
G|---------------7----|---------------7----|--------------7----|--------------7h9p7--| (Play x2)
D|-----9-7-7-7-9---9--|-----9-7-7-7-9---9--|----9-7-7-7-9---9--|----9-7-7-7-9--------|
A|--10----------------|--10----------------|--7----------------|--7------------------|
E|--------------------|--------------------|-------------------|---------------------|


VERSE 2 (0:49-1:03)

e|-----------|----------|-------------------|----------|
B|-----------|--8-10-8--|-------------------|--8-10-8--|
G|--7-9-7-7--|----------|--7-9-7-7--7-9-7-7-|----------|
D|-----------|----------|-------------------|----------|
A|-----------|----------|-------------------|----------|
E|-----------|----------|-------------------|----------|


CHORUS (1:05-1:21)

e|---------7-10-7-----|---------7-10-7-----|---------7-10-7-----|---------7-10-7-----|
B|--8-10-8--------10--|--8-10-8--------10--|--8-10-8--------10--|--8-10-8--------10--|
G|--------------------|--------------------|--------------------|--------------------| (Play x2)
D|--------------------|--------------------|--------------------|--------------------|
A|--------------------|--------------------|--------------------|--------------------|
E|--------------------|--------------------|--------------------|--------------------|


BRIDGE (1:21-1:37)

e|-------------------|--------------------|-------------------|---------------------|
B|-------------------|--------------------|-------------------|---------------------|
G|--7-----------7----|---------------7----|--------------7----|--------------7h9p7--|
D|----9-7-7-7-9---9--|-----9-7-7-7-9---9--|----9-7-7-7-9---9--|----9-7-7-7-9--------|
A|-------------------|--10----------------|--7----------------|--7------------------|
E|-------------------|--------------------|-------------------|---------------------|

e|--------------------|--------------------|-------------------|---------------------|
B|--------------------|--------------------|-------------------|---------------------|
G|---------------7----|---------------7----|--------------7----|--------------7h9p7--|
D|-----9-7-7-7-9---9--|-----9-7-7-7-9---9--|----9-7-7-7-9---9--|----9-7-7-7-9--------|
A|--10----------------|--10----------------|--7----------------|--7------------------|
E|--------------------|--------------------|-------------------|---------------------|


VERSE 3 (1:46-1:52)

e|-----------|-----------|
B|--7-9-7-7--|--7-9-7-7--|
G|-----------|-----------|
D|-----------|-----------|
A|-----------|-----------|
E|-----------|-----------|


CHORUS (1:54-2:10)

e|---------7-10-7-----|---------7-10-7-----|---------7-10-7-----|---------7-10-7-----|
B|--8-10-8--------10--|--8-10-8--------10--|--8-10-8--------10--|--8-10-8--------10--|
G|--------------------|--------------------|--------------------|--------------------| (Play x2)
D|--------------------|--------------------|--------------------|--------------------|
A|--------------------|--------------------|--------------------|--------------------|
E|--------------------|--------------------|--------------------|--------------------|


INSTRUMENTAL (2:10-2:41)

e|--------|-----------|------------|-------------|
B|--------|-----------|------------|-------------|
G|--9b10--|--9-9-7----|------------|--------7----|
D|--------|--------9--|--9-9-7-----|----------9--|
A|--------|-----------|--------10--|--10-10------|
E|--------|-----------|------------|-------------|

e|--------------|-----------|------------|--------------|
B|--------------|-----------|------------|--------------|
G|------7-9b10--|--9-9-7----|------------|--------7-----|
D|--9-9---------|--------9--|--9-9-7-----|----------9---|
A|--------------|-----------|--------10--|--10-10-------|
E|--------------|-----------|------------|--------------|


VERSE 4 (No lead guitar)


CHORUS (2:59-3:31)

e|---------7-10-7-----|---------7-10-7-----|---------7-10-7-----|---------7-10-7-----|
B|--8-10-8--------10--|--8-10-8--------10--|--8-10-8--------10--|--8-10-8--------10--|
G|--------------------|--------------------|--------------------|--------------------| (Play x4)
D|--------------------|--------------------|--------------------|--------------------|
A|--------------------|--------------------|--------------------|--------------------|
E|--------------------|--------------------|--------------------|--------------------|


************************************

| h  Hammer-on
| p  Pull-off
| b  Bend

************************************

            
            
Suggest correction
Creating personal tab
Creating personal tab
You can edit any tab online and save it as your Personal.

You can edit, replace or remove any tab part or add personal notes – all changes will be seen only by you.

Personal tabs can be accessed anytime from any device, even offline.
Learn more »
comments
print report bad tab
guest
You may want to rate the tab now too:
select rating
Wanna post a correction for this tab? Suggest correction