Oops, an error
Loading. Please wait.

Drunk tab

version 1
version 1

Whole song

688 views 6 this week
no commentswrite comment
1 2 3 4 5
1 last vote to show rating
add to favorites
×
Save as Personal and add changes to this tab that will be seen only by you. Learn more ›
×
You can save this tab as Personal to edit and correct it or add notes. All changes will be seen only by you. Learn more »
launch autoscroll
font size
0
reset
how to read this tab
guitar tuner
edit
Autoscroll
slow
fast
+/-
esc
set tempo
stop
----------------------------------------------------------------------------------------
                            Drunk-Viola Beach (Lead Guitar Tab)
----------------------------------------------------------------------------------------

Tabbed by:Mark Donohue 
E-mail: mwdonohue97@gmail.com

Tuning:Standard 

________________________________________________________________________________________



[Intro] (0:13-0:27)

e|--5---7-----|--7-7-7-5---5-----------|--7-7-7-5---5-----------|--7-7-7-5---5----------------------|
B|------------|----------8---8---5-----|----------8---8---------|----------8---8--------------------|
G|------------|------------------------|------------------7-----|------------------7---7---7---7/9--|
D|------------|------------------------|------------------------|--------------------9---9---9------|
A|------------|------------------------|------------------------|-----------------------------------|
E|------------|------------------------|------------------------|-----------------------------------|



[Verse 1] (0:27-0:54)

e|-------------------|--12~---------------|--12~-------12-10-----|---------------------|
B|-------------------|--------------------|------------------10--|--10~----------------|
G|-------------------|--------------------|----------------------|---------------------|
D|-------------------|--------------------|----------------------|---------------------|
A|-------------------|--------------------|----------------------|---------------------|
E|-------------------|--------------------|----------------------|---------------------|

e|--12~--------------|--12~---------------|--12~-------12-10-----|---------------------|
B|-------------------|--------------------|------------------10--|--10~----------------|
G|-------------------|--------------------|----------------------|---------------------|
D|-------------------|--------------------|----------------------|---------------------|
A|-------------------|--------------------|----------------------|---------------------|
E|-------------------|--------------------|----------------------|---------------------|



[Chorus] (0:54-1:22)

e|--5---7-----|--7-7-7-5---5-----------|--7-7-7-5---5-----------|--7-7-7-5---5----------------------|
B|------------|----------8---8---5-----|----------8---8---------|----------8---8--------------------|
G|------------|------------------------|------------------7-----|------------------7---7---7---7/9--|
D|------------|------------------------|------------------------|--------------------9---9---9------|
A|------------|------------------------|------------------------|-----------------------------------|
E|------------|------------------------|------------------------|-----------------------------------|

e|------------|--7-7-7-5---5-----------|--7-7-7-5---5-----------|--7-7-7-5---5----------------------|
B|------------|----------8---8---5-----|----------8---8---------|----------8---8--------------------|
G|------------|------------------------|------------------7-----|------------------7---7---7---7/9--|
D|------------|------------------------|------------------------|--------------------9---9---9------|
A|------------|------------------------|------------------------|-----------------------------------|
E|------------|------------------------|------------------------|-----------------------------------|




[Verse 2] (1:22-1:36)

e|------------------------|------------------------|------------------------|---------------------------|
B|------------------------|------------------------|------------------------|---------------------------|
G|------------------------|------------------------|------------------------|--------7-7-7-7-7-7-7-7-7--|
D|--7--9--7--9--9-7-------|--7--9--7--9--9-7-------|--7--9--7--9--9-7-------|--7--9---------------------|
A|------------------10-7--|------------------10-7--|------------------10-7--|---------------------------|
E|------------------------|------------------------|------------------------|---------------------------|



[Bridge] (1:36-1:49)

e|--5---7-----|--7-7-7-5---5-----------|--7-7-7-5---5-----------|--7-7-7-5---5----------------------|
B|------------|----------8---8---5-----|----------8---8---------|----------8---8--------------------|
G|------------|------------------------|------------------7-----|------------------7---7---7---7/9--|
D|------------|------------------------|------------------------|--------------------9---9---9------|
A|------------|------------------------|------------------------|-----------------------------------|
E|------------|------------------------|------------------------|-----------------------------------|



[Verse 3] (1:49-2:17)

e|-------------------|--12~---------------|--12~-------12-10-----|---------------------|
B|-------------------|--------------------|------------------10--|--10~----------------|
G|-------------------|--------------------|----------------------|---------------------|
D|-------------------|--------------------|----------------------|---------------------|
A|-------------------|--------------------|----------------------|---------------------|
E|-------------------|--------------------|----------------------|---------------------|

e|--12~--------------|--12~---------------|--12~-------12-10-----|---------------------|
B|-------------------|--------------------|------------------10--|--10~----------------|
G|-------------------|--------------------|----------------------|---------------------|
D|-------------------|--------------------|----------------------|---------------------|
A|-------------------|--------------------|----------------------|---------------------|
E|-------------------|--------------------|----------------------|---------------------|



[Chorus] (2:17-2:31)

e|--5---7-----|--7-7-7-5---5-----------|--7-7-7-5---5-----------|--7-7-7-5---5----------------------|
B|------------|----------8---8---5-----|----------8---8---------|----------8---8--------------------|
G|------------|------------------------|------------------7-----|------------------7---7---7---7/9--|
D|------------|------------------------|------------------------|--------------------9---9---9------|
A|------------|------------------------|------------------------|-----------------------------------|
E|------------|------------------------|------------------------|-----------------------------------|



[Verse 4] (2:31-3:01)

e|------------------------|------------------------|------------------------|------------------------|
B|------------------------|------------------------|------------------------|------------------------|
G|------------------------|------------------------|------------------------|------------------------|
D|--7--9--7--9--9-7-------|--7--9--7--9--9-7-------|--7--9--7--9--9-7-------|--7--9--7--9--9-7-------|
A|------------------10-7--|------------------10-7--|------------------10-7--|------------------10-7--|
E|------------------------|------------------------|------------------------|------------------------|

e|------------------------|------------------------|------------------------|-------------------------------|
B|------------------------|------------------------|------------------------|-------------------------------|
G|------------------------|------------------------|------------------------|--------7-7-7-7-7-7-7-7-7-7-7--|
D|--7--9--7--9--9-7-------|--7--9--7--9--9-7-------|--7--9--7--9--9-7-------|--7--9-------------------------|
A|------------------10-7--|------------------10-7--|------------------10-7--|-------------------------------|
E|------------------------|------------------------|------------------------|-------------------------------|



[Outro] (3:01-3:57)

e|--17-17-17-19-19-19-17-17-17-19-19-19-19-17--------|
B|--------------------------------------------20-17--|
G|---------------------------------------------------| (Play x4)
D|---------------------------------------------------|
A|---------------------------------------------------|
E|---------------------------------------------------|

e|--------------------------------------------------|-------------------------------------------------| 
B|-20-20-20\19-19-19\17-17-17\15-15-15-15-15-15-15/-|-20-20-20\19-19-19\17-17-17\15-15-15\12-12-12-12-| 
G|--------------------------------------------------|-------------------------------------------------|(Play)
D|--------------------------------------------------|-------------------------------------------------|( x2 )
A|--------------------------------------------------|-------------------------------------------------|
E|--------------------------------------------------|-------------------------------------------------|

e|-------------12-15--------------12-12-15--|-------------12-12-15-------------12-12-15--|
B|--12-12-15-12--------12-12-15-15----------|--12-12-15-15----------12-12-15-15----------|
G|------------------------------------------|--------------------------------------------|
D|------------------------------------------|--------------------------------------------|
A|------------------------------------------|--------------------------------------------|
E|------------------------------------------|--------------------------------------------|

e|----------------------------------------------------|---------------------------------------------------|
B|--20-20-20\19-19-19\17-17-17\15-15-15-15-15-15-15/--|--20-20-20\19-19-19\17-17-17\15-15-15-15-15-15-15--|
G|----------------------------------------------------|---------------------------------------------------| 
D|----------------------------------------------------|---------------------------------------------------|
A|----------------------------------------------------|---------------------------------------------------|
E|----------------------------------------------------|---------------------------------------------------|


e|--17-17-17-19-19-19-17-17-17-19-19-19-19-17-------|--17-17-17-19-19-19-17-17-17-19-19-19-19-17-------|
B|-------------------------------------------20-17--|-------------------------------------------20-17--|
G|--------------------------------------------------|--------------------------------------------------|
D|--------------------------------------------------|--------------------------------------------------|
A|--------------------------------------------------|--------------------------------------------------|
E|--------------------------------------------------|--------------------------------------------------|

e|--17-17-17-19-19-19-17-17-17-19-19-19-19-17-------|----------------------------------------------19-19\7-|
B|-------------------------------------------20-17--|--20-19-19-19-17-17-15-20-20-19-19-19-17-17-15--------|
G|--------------------------------------------------|------------------------------------------------------| 
D|--------------------------------------------------|------------------------------------------------------|
A|--------------------------------------------------|------------------------------------------------------|
E|--------------------------------------------------|------------------------------------------------------|



************************************

| /   Slide up
| \   Slide down
| ~   Vibrato

************************************

            
            
Suggest correction
Creating personal tab
Creating personal tab
You can edit any tab online and save it as your Personal.

You can edit, replace or remove any tab part or add personal notes – all changes will be seen only by you.

Personal tabs can be accessed anytime from any device, even offline.
Learn more »
Give kudos to tab author, rate the tab!
1 2 3 4 5
comments
print report bad tab
guest
You may want to rate the tab now too:
select rating
Wanna post a correction for this tab? Suggest correction