Oops, an error
Loading. Please wait.

Get To Dancing tab

601 views 3 this week
no commentswrite comment
1 2 3 4 5
1 last vote to show rating
add to favorites
×
Save as Personal and add changes to this tab that will be seen only by you. Learn more ›
×
You can save this tab as Personal to edit and correct it or add notes. All changes will be seen only by you. Learn more »
launch autoscroll
font size
0
reset
how to read this tab
guitar tuner
edit
Autoscroll
slow
fast
+/-
esc
set tempo
stop
-----------------------------------------------------------------------------------------
                         Get To Dancing-Viola Beach (Lead Guitar Tab)
-----------------------------------------------------------------------------------------

Tabbed by:Mark Donohue
Email:mwdonohue97@gmail.com

Tuning:Standard

_________________________________________________________________________________________



[Intro] (0:00-0:07)

e|-------------------|----------------------|
B|-----9---9----9----|-----9---9----9-------|
G|--11-------11------|--11-------11-----11--|
D|-------------------|----------------------|
A|-------------------|----------------------|
E|-------------------|----------------------|
   


[Verse 1] (0:08-0:39)

e|----------------------------------------|----------------------------------------|
B|--9-9-9-9-9-9--------9-9-9-9-9-9--------|--9-9-9-9-9-9--------9-9-9-9-9-9--------|
G|--------------11-11--------------11-11--|--------------11-11--------------11-11--| (Play x3)
D|----------------------------------------|----------------------------------------|
A|----------------------------------------|----------------------------------------|
E|----------------------------------------|----------------------------------------|

e|----------------------------------------|--------------------------------------|
B|--9-9-9-9-9-9--------9-9-9-9-9-9--------|--9-9-9-9-9-9--------9-9-9-9-9-9------|
G|--------------11-11--------------11-11--|--------------11-11--------------11b--| 
D|----------------------------------------|--------------------------------------|
A|----------------------------------------|--------------------------------------|
E|----------------------------------------|--------------------------------------|



[Bridge] (0:39-0:54)

e|--------------------------------------------|--------------------------------------------|
B|----------9---------------------------------|----------9---------------------------------|
G|--9--9-11---11-11-9----------------------8--|--9--9-11---11-11-9----------------------8--| (Play x2)
D|--------------------9--11-11-11-11-11-11----|--------------------9--11-11-11-11-11-11----|
A|--------------------------------------------|--------------------------------------------|
E|--------------------------------------------|--------------------------------------------|



[Verse 2] (0:54-1:09)

e|----------------------------------------|----------------------------------------|
B|--9-9-9-9-9-9--------9-9-9-9-9-9--------|--9-9-9-9-9-9--------9-9-9-9-9-9--------|
G|--------------11-11--------------11-11--|--------------11-11--------------11-11--| 
D|----------------------------------------|----------------------------------------|
A|----------------------------------------|----------------------------------------|
E|----------------------------------------|----------------------------------------|

e|----------------------------------------|--------------------------------------|
B|--9-9-9-9-9-9--------9-9-9-9-9-9--------|--9-9-9-9-9-9--------9-9-9-9-9-9------|
G|--------------11-11--------------11-11--|--------------11-11--------------11b--| 
D|----------------------------------------|--------------------------------------|
A|----------------------------------------|--------------------------------------|
E|----------------------------------------|--------------------------------------|



[Chorus] (1:09-1:28)

e|--------------------------------------------|--------------------------------------------|
B|----------9---------------------------------|----------9---------------------------------|
G|--9--9-11---11-11-9----------------------8--|--9--9-11---11-11-9----------------------8--| (Play x2)
D|--------------------9--11-11-11-11-11-11----|--------------------9--11-11-11-11-11-11----|
A|--------------------------------------------|--------------------------------------------|
E|--------------------------------------------|--------------------------------------------| 

e|--------------------------------------------|
B|----------9---------------------------------|
G|--9--9-11---11-11-9----------------------8--|
D|--------------------9--11-11-11-11-11-11----|
A|--------------------------------------------|
E|--------------------------------------------|                  



[Bridge] (1:28-1:43)

e|-----------------------------------------|-----------------------------------------|
B|----------9------------------------------|----------9------------------------------|
G|--9--9-11---11-11-9-------------------8--|--9--9-11---11-11-9-------------------8--| (Play x2)
D|--------------------9--11--11--11-11-----|--------------------9--11--11--11-11-----|
A|-----------------------------------------|-----------------------------------------|
E|-----------------------------------------|-----------------------------------------|



[Verse 3] (1:43-2:14)

e|------------------|------------------|------------------|----------------------|
B|-----9-------9----|-----9-------9----|-----9-------9----|-------------9--------|
G|--11------11------|--11------11------|--11------11------|--11-9----11-----11b--|
D|------------------|------------------|------------------|----------------------|
A|------------------|------------------|------------------|----------------------|
E|------------------|------------------|------------------|----------------------|

e|----------------------------------------|----------------------------------------|
B|--9-9-9-9-9-9--------9-9-9-9-9-9--------|--9-9-9-9-9-9--------9-9-9-9-9-9--------|
G|--------------11-11--------------11-11--|--------------11-11--------------11-11--| 
D|----------------------------------------|----------------------------------------|
A|----------------------------------------|----------------------------------------|
E|----------------------------------------|----------------------------------------|

e|----------------------------------------|--------------------------------------|
B|--9-9-9-9-9-9--------9-9-9-9-9-9--------|--9-9-9-9-9-9--------9-9-9-9-9-9------|
G|--------------11-11--------------11-11--|--------------11-11--------------11~--| 
D|----------------------------------------|--------------------------------------|
A|----------------------------------------|--------------------------------------|
E|----------------------------------------|--------------------------------------|



[Chorus] (2:14-2:33)

e|--------------------------------------------|--------------------------------------------|
B|----------9---------------------------------|----------9---------------------------------|
G|--9--9-11---11-11-9----------------------8--|--9--9-11---11-11-9----------------------8--| (Play x2)
D|--------------------9--11-11-11-11-11-11----|--------------------9--11-11-11-11-11-11----|
A|--------------------------------------------|--------------------------------------------|
E|--------------------------------------------|--------------------------------------------| 

e|--------------------------------------------|
B|----------9---------------------------------|
G|--9--9-11---11-11-9----------------------8--|
D|--------------------9--11-11-11-11-11-11----|
A|--------------------------------------------|
E|--------------------------------------------| 
   


[Instrumental] (2:33-2:48)

e|-------------------------------|----------------------------------------------|
B|-------------------------------|----------------------------------------------|
G|-------------------------------|-------------------------------11--11-9-11-9--|
D|-------------------------------|----------------------------------------------|
A|-------------------------------|----------------------------------------------|
E|-------------------------------|----------------------------------------------|

e|-------------------------------|----------------------------------------------|
B|-------------------------------|-------------------9-12-----------------------|
G|--11b13---11b13--13r11-9-11-9--|--11p9----9-11--11------11-9----9-11b13r11-9--|
D|-------------------------------|-------11--------------------11---------------|
A|-------------------------------|----------------------------------------------|
E|-------------------------------|----------------------------------------------|


[Verse 4] (2:48-3:04)

e|----------------------------------------|-------------------------------------------|
B|----------------------------------------|-------------------------------------------|
G|----------------------------------------|--------------------------------------11b--|
D|----------------------------------------|-------------------------------------------|
A|----------------------------------------|-------------------------------------------|
E|----------------------------------------|-------------------------------------------| 

e|----------------------------------------|-------------------------------------------|
B|--9-9-9-9-9-9--------9-9-9-9-9-9--------|--9-9-9-9-9-9--------9b--------------------|
G|--------------11-11--------------11-11--|--------------11-11-----11-9-9-9-11b13r11--|
D|----------------------------------------|-------------------------------------------|
A|----------------------------------------|-------------------------------------------|
E|----------------------------------------|-------------------------------------------|



[Chorus] (3:04-3:50)

e|--------------------------------------------|--------------------------------------------|
B|----------9---------------------------------|----------9---------------------------------|
G|--9--9-11---11-11-9----------------------8--|--9--9-11---11-11-9----------------------8--| (Play x3)
D|--------------------9--11-11-11-11-11-11----|--------------------9--11-11-11-11-11-11----|
A|--------------------------------------------|--------------------------------------------|
E|--------------------------------------------|--------------------------------------------| 

e|--------------------------------------------|
B|----------9---------------------------------|
G|--9--9-11---11-11-9----------------------8--|
D|--------------------9--11-11-11-11-11-11----|
A|--------------------------------------------|
E|--------------------------------------------|

e|-----------------------------------------|-----------------------------------------|
B|----------9------------------------------|----------9------------------------------|
G|--9--9-11---11-11-9-------------------8--|--9--9-11---11-11-9-------------------8--| 
D|--------------------9--11--11--11-11-----|--------------------9--11--11--11-11-----|
A|-----------------------------------------|-----------------------------------------|
E|-----------------------------------------|-----------------------------------------|

e|-----------------------------------------|---------------------------------------------|
B|----------9------------------------------|----------9-------------------------------9--|
G|--9--9-11---11-11-9-------------------8--|--9--9-11---11-11-9-------------------8---9--| (Let ring)
D|--------------------9--11--11--11-11-----|--------------------9--11--11--11-11------9--|
A|-----------------------------------------|------------------------------------------7--|
E|-----------------------------------------|---------------------------------------------|


************************************

|p    Pull-off
|b    Bend string
|r    Release string
| /   Slide up
| \   Slide down

************************************

            
            
Suggest correction
Creating personal tab
Creating personal tab
You can edit any tab online and save it as your Personal.

You can edit, replace or remove any tab part or add personal notes – all changes will be seen only by you.

Personal tabs can be accessed anytime from any device, even offline.
Learn more »
Give kudos to tab author, rate the tab!
1 2 3 4 5
comments
print report bad tab
guest
You may want to rate the tab now too:
select rating
Wanna post a correction for this tab? Suggest correction