Oops, an error
Loading. Please wait.

Go Outside tab

760 views 6 this week
no commentswrite comment
1 2 3 4 5
x 3
add to favorites
×
Save as Personal and add changes to this tab that will be seen only by you. Learn more ›
×
You can save this tab as Personal to edit and correct it or add notes. All changes will be seen only by you. Learn more »
launch autoscroll
font size
0
reset
how to read this tab
guitar tuner
edit
Autoscroll
slow
fast
+/-
esc
set tempo
stop
-----------------------------------------------------------------------------------------
                          Go Outside-Viola Beach (Lead Guitar Tab)
-----------------------------------------------------------------------------------------

Tabbed by:Mark Donohue
Email:mwdonohue97@gmail.com

Tuning:Standard

_________________________________________________________________________________________



[Intro] (0:00-0:15)

e|-----------------------------------------|---------------------------------------|
B|-----------------------------------------|---------------------------------------|
G|--9-9-9-9-9-9-7-----9-9-9-9-9-9-7--------|--9-9-9-9-9-7-----9-9-9-9-9-9-7--------| (Play x2)
D|----------------9-----------------9-7-9--|--------------9-----------------9-7-9--|
A|-----------------------------------------|---------------------------------------|
E|-----------------------------------------|---------------------------------------|



[Verse 1] (0:15-0:44)

e|-------------------------|------------------|------------------------|------------------------|
B|-------------------------|------------------|------------------------|------------------------|
G|--7/16---7-7-9----9-9-7--|--7-7-9----9-9-7--|--9b11r9-7--9b11r9-7----|--9b11r9-7--9b11r9-7----|
D|-------------------------|------------------|------------------------|------------------------|
A|-------------------------|------------------|------------------------|------------------------|
E|-------------------------|------------------|------------------------|------------------------|

e|------------------|------------------|------------------------|------------------------------|
B|------------------|------------------|------------------------|------------------------------|
G|--7-7-9----9-9-7--|--7-7-9----9-9-7--|--9b11r9-7--9b11r9-7----|--9b11r9-7--9b11r9-7-9-7------|
D|------------------|------------------|------------------------|-------------------------9-7--|
A|------------------|------------------|------------------------|------------------------------|
E|------------------|------------------|------------------------|------------------------------|



[Pre-Chorus] (0:44-0:59)

e|--12-12-12-12-12-12-10------12-12-12-12-12-12-10-----------|
B|-----------------------12------------------------12-10-12--|
G|-----------------------------------------------------------|
D|-----------------------------------------------------------|
A|-----------------------------------------------------------|
E|-----------------------------------------------------------|

e|--12-12-12-12-12-10------12-12-12-12-12-12-10-----------|
B|--------------------12------------------------12-10-12--|
G|--------------------------------------------------------| 
D|--------------------------------------------------------|
A|--------------------------------------------------------|
E|--------------------------------------------------------|

e|--12-12-12-12-12-12-10------12-12-12-12-12-12-10-----------|
B|-----------------------12------------------------12-10-12--|
G|-----------------------------------------------------------|
D|-----------------------------------------------------------|
A|-----------------------------------------------------------|
E|-----------------------------------------------------------|

e|--12-12-12-12-12-12-10------------------------------------|
B|-----------------------12---------------------------------|
G|----------------------------------------------------------|
D|---------------------------12-14b15-15-15-15-15-15r14-12--|
A|----------------------------------------------------------|
E|----------------------------------------------------------|



[Chorus] (0:59-1:14)

e|--------14-----------14-----------14-----------14-----|--------------------------------------------|
B|--15-17----17--15-17----17--15-17----17--15-17----17--|--------15---------------15-15h17-15--------|
G|------------------------------------------------------|--14-16----16-14---14-16-------------16-14--| (Play)
D|------------------------------------------------------|--------------------------------------------| ( x2 )
A|------------------------------------------------------|--------------------------------------------|
E|------------------------------------------------------|--------------------------------------------|



[Bridge] (1:14-1:21)

e|-----------------------------------------|---------------------------------------|
B|-----------------------------------------|---------------------------------------|
G|--9-9-9-9-9-9-7-----9-9-9-9-9-9-7--------|--9-9-9-9-9-7-----9-9-9-9-9-9-7--------| (Play x2)
D|----------------9-----------------9-7-9--|--------------9-----------------9-7-9--|
A|-----------------------------------------|---------------------------------------|
E|-----------------------------------------|---------------------------------------|



[Verse 2] (1:21-1:51)

e|-------------------------|------------------|------------------------|------------------------|
B|-------------------------|------------------|------------------------|------------------------|
G|--7/16---7-7-9----9-9-7--|--7-7-9----9-9-7--|--9b11r9-7--9b11r9-7----|--9b11r9-7--9b11r9-7----|
D|-------------------------|------------------|------------------------|------------------------|
A|-------------------------|------------------|------------------------|------------------------|
E|-------------------------|------------------|------------------------|------------------------|

e|------------------|------------------|------------------------|------------------------------|
B|------------------|------------------|------------------------|------------------------------|
G|--7-7-9----9-9-7--|--7-7-9----9-9-7--|--9b11r9-7--9b11r9-7----|--9b11r9-7--9b11r9-7-9-7------|
D|------------------|------------------|------------------------|-------------------------9-7--|
A|------------------|------------------|------------------------|------------------------------|
E|------------------|------------------|------------------------|------------------------------|



[Pre-Chorus] (1:51-2:06)

e|--12-12-12-12-12-12-10------12-12-12-12-12-12-10-----------|
B|-----------------------12------------------------12-10-12--|
G|-----------------------------------------------------------|
D|-----------------------------------------------------------|
A|-----------------------------------------------------------|
E|-----------------------------------------------------------|

e|--12-12-12-12-12-10------12-12-12-12-12-12-10-----------|
B|--------------------12------------------------12-10-12--|
G|--------------------------------------------------------| 
D|--------------------------------------------------------|
A|--------------------------------------------------------|
E|--------------------------------------------------------|

e|--12-12-12-12-12-12-10------12-12-12-12-12-12-10-----------|
B|-----------------------12------------------------12-10-12--|
G|-----------------------------------------------------------|
D|-----------------------------------------------------------|
A|-----------------------------------------------------------|
E|-----------------------------------------------------------|

e|--12-12-12-12-12-12-10------------------------------------|
B|-----------------------12---------------------------------|
G|----------------------------------------------------------|
D|---------------------------12-14b15-15-15-15-15-15r14-12--|
A|----------------------------------------------------------|
E|----------------------------------------------------------|



[Chorus] (2:06-2:21)

e|--------14-----------14-----------14-----------14-----|--------------------------------------------|
B|--15-17----17--15-17----17--15-17----17--15-17----17--|--------15---------------15-15h17-15--------|
G|------------------------------------------------------|--14-16----16-14---14-16-------------16-14--| (Play)
D|------------------------------------------------------|--------------------------------------------| ( x2 )
A|------------------------------------------------------|--------------------------------------------|
E|------------------------------------------------------|--------------------------------------------|



[Bridge] (2:21-2:50)

e|--12-12-10-----------12-12-10-----------|--12-12-10----------12-12-10-----------|
B|-------------10---------------12-10-----|-------------10--------------12-10-----|
G|-----------11---11------------------11--|-----------11---11-----------------11--| 
D|----------------------------------------|---------------------------------------|
A|----------------------------------------|---------------------------------------|
E|----------------------------------------|---------------------------------------|

e|--12-12-10-----------12-12-10-----------|--12-12-10----------12-12-10---------|
B|-------------10---------------12-10-----|-------------10----------------10----|
G|-----------11---11------------------11--|-----------11----------------11------| 
D|----------------------------------------|-------------------------------------|
A|----------------------------------------|-------------------------------------|
E|----------------------------------------|-------------------------------------|

e|--12-12-10-----------12-12-10-----------|--12-12-10----------12-12-10-----------|
B|-------------10---------------12-10-----|-------------10--------------12-10-----|
G|-----------11---11------------------11--|-----------11---11-----------------11--| 
D|----------------------------------------|---------------------------------------|
A|----------------------------------------|---------------------------------------|
E|----------------------------------------|---------------------------------------|

e|--12-12-10-----------12-12-10--------|--12-12-10----------------10--|
B|-------------10---------------12-10--|--------------10----10-12-----|
G|-----------11---11-------------------|-----------11----11-----------|
D|-------------------------------------|------------------------------|
A|-------------------------------------|------------------------------|
E|-------------------------------------|------------------------------|



[Pre-Chorus] (2:51-3:05)

e|--12-12-12-12-12-12-10------12-12-12-12-12-12-10-----------|
B|-----------------------12------------------------12-10-12--|
G|-----------------------------------------------------------|
D|-----------------------------------------------------------|
A|-----------------------------------------------------------|
E|-----------------------------------------------------------|

e|--12-12-12-12-12-10------12-12-12-12-12-12-10-----------|
B|--------------------12------------------------12-10-12--|
G|--------------------------------------------------------| 
D|--------------------------------------------------------|
A|--------------------------------------------------------|
E|--------------------------------------------------------|

e|--12-12-12-12-12-12-10------12-12-12-12-12-12-10-----------|
B|-----------------------12------------------------12-10-12--|
G|-----------------------------------------------------------|
D|-----------------------------------------------------------|
A|-----------------------------------------------------------|
E|-----------------------------------------------------------|

e|--12-12-12-12-12-12-10------------------------------------|
B|-----------------------12---------------------------------|
G|----------------------------------------------------------|
D|---------------------------12-14b15-15-15-15-15-15r14-12--|
A|----------------------------------------------------------|
E|----------------------------------------------------------|



[Chorus] (3:05-3:40)

e|--------14-----------14-----------14-----------14-----|--------------------------------------------|
B|--15-17----17--15-17----17--15-17----17--15-17----17--|--------15---------------15-15h17-15--------|
G|------------------------------------------------------|--14-16----16-14---14-16-------------16-14--| (Play)
D|------------------------------------------------------|--------------------------------------------| ( x3 )
A|------------------------------------------------------|--------------------------------------------|
E|------------------------------------------------------|--------------------------------------------|

e|--------14-----------14-----------14-----------14-----|--------------------------------------------------|
B|--15-17----17--15-17----17--15-17----17--15-17----17--|--------15---------------15-15h17-15-------15-15~-|
G|------------------------------------------------------|--14-16----16-14---14-16-------------16-14--------| 
D|------------------------------------------------------|--------------------------------------------------| 
A|------------------------------------------------------|--------------------------------------------------|
E|------------------------------------------------------|--------------------------------------------------|



************************************

| h   Hammer-on
| r   Release
| b   Bend
| /   Slide up
| ~   Vibrato

************************************

            
            
Suggest correction
Creating personal tab
Creating personal tab
You can edit any tab online and save it as your Personal.

You can edit, replace or remove any tab part or add personal notes – all changes will be seen only by you.

Personal tabs can be accessed anytime from any device, even offline.
Learn more »
Give kudos to tab author, rate the tab!
1 2 3 4 5
comments
print report bad tab
guest
You may want to rate the tab now too:
select rating
Wanna post a correction for this tab? Suggest correction