Oops, an error
Loading. Please wait.

Swings And Waterslides bass

2,176 views 1 this week
no commentswrite comment
1 2 3 4 5
x 8
add to favorites
×
Save as Personal and add changes to this tab that will be seen only by you. Learn more ›
×
You can save this tab as Personal to edit and correct it or add notes. All changes will be seen only by you. Learn more »
launch autoscroll
font size
0
reset
guitar tuner
edit
Autoscroll
slow
fast
+/-
esc
set tempo
stop
Author
-------------------------------------------------------------------------------
                             SWINGS AND WATERSLIDES - Viola Beach
-------------------------------------------------------------------------------
Tabbed by: Jordan Bloomfield
E-mail: jordan-bloomfield@hotmail.co.uk 

This is my first tab and I couldn't find a tab for this awesome song on bass anywhere, here it is. Im pretty
sure its 99% accurate in the song he lets the notes ring at the end of some phrases but there easy to spot.

Such tragic news about such a promising band hope they're rocking out up there!

If you gave any improvements email me!
 
Tuning: Standard

Bass comes in at 0:04

Structure:

[Intro]
[Verse]
[Chorus]
[Post-Chorus]
[Verse]
[Chorus]
[Post-Chorus] (x2)
[Chorus]
[Outro]

  
[Intro]

G|---------------------------------------------------------------------------|
D|---------------------------------------------------------------------------| 
A|---------------------------------------------------------------------------|
E|-7-7-7-7-7-7-7-7-7-7-7-7-7-7-7-7-7-7-7-7-7-7-7-7-7-7-7-7-7-7-7-7-7~--------|


[Verse]

G|---------------------------------------------------------------------------|
D|---------------------------------------------------------------------------|
A|-------9-11---6-7------------------9-11---6-7------------------------------| (x3)
E|-7-9--------------7----------7-9--------------7----------------------------|


[Chorus]

G|---------------------------------------------------------------------------|
D|---------------------------------------------------------------------------| (x2)
A|-----------------9-9-9-11-11-11-11-11-6-6-6-7-7-7-7-7----------------------|
E|-7-7-7-9-9-9-9-9--------------------------------------7-7-7-7-7-7-7-7------|


[Post-Chorus]

G|---------------------------------------------------------------------------|
D|---------------------------------------------------------------------------| (x2)
A|----11--6-6\---------------------------------------------------------------|
E|-7----------7-7-7-7-7-7-7-7-7-7-7-7-7-7-7-7-7------------------------------|


[Outro]

G|---------------------------------------------------------------------------|
D|---------------------------------------------------------------------------|
A|-------9-11---6-7----------------------------------------------------------|
E|-7-9--------------7--------------------------------------------------------| Let it ring



************************************

| ~  Vibrato
| \  Slide down

************************************

            
            
Suggest correction
Creating personal tab
Creating personal tab
You can edit any tab online and save it as your Personal.

You can edit, replace or remove any tab part or add personal notes – all changes will be seen only by you.

Personal tabs can be accessed anytime from any device, even offline.
Learn more »
comments
print report bad tab
guest
You may want to rate the tab now too:
select rating
Wanna post a correction for this tab? Suggest correction