Oops, an error
Loading. Please wait.

Shattered Tab

96 views 1 this week
no commentswrite comment
1 2 3 4 5
3 more votes to show rating
add to favorites
launch autoscroll
font size
0
reset
how to read this tab
guitar tuner
Autoscroll
slow
fast
+/-
esc
set tempo
stop
Help us to improve Ultimate-Guitar.com Take our survey!
×
Author
Played in drop D
Fun to play, the breakdown is the only bit im not sure on.





Intro:
e|---x1---|----------------x2-------------------------|
B|--------|-------------------------------------------|
G|--------|-------------------------------------------|
D|-870878-|-77777777-9-9109-7-33333333----------------|
A|-870878-|-77777777-9-9109-7-33333333----------------|
D|-870878-|-77777777-9-9109-7-33333333-10910121091012-|



Bridge:
e|-----------------------------------------------------------|
B|-----------------------------------------------------------|
G|-----------------------------------------------------------|
D|-000000-000000-000000-000000-000000-000000-000000-000000\\-|
A|-000000-000000-000000-000000-000000-000000-000000-000000\\-|
D|-000000-000000-000000-000000-000000-000000-000000-000000\\-|
   ...... ...... ...... ...... ...... ...... ...... ...... 



Verse:
e|----------------------------------------------------------->
B|----------------------------------------------------------->
G|----------------------------------------------------------->
D|-000000-000000-000000-000000-000000-000000-000000-000000\\->
A|-000000-000000-000000-000000-000000-000000-000000-000000\\->
D|-000000-000000-000000-000000-000000-000000-000000-000000\\->
   ...... ...... ...... ...... ...... ...... ...... ...... 

<------------------------------------------------------|
<------------------------------------------------------|
<------------------------------------------------------|
<-000000-000000-000000-000000-000000-000000-87087087\\-|
<-000000-000000-000000-000000-000000-000000-87087087\\-|
<-000000-000000-000000-000000-000000-000000-87087087\\-|
  ...... ...... ...... ...... ...... ......  



Chorus:
e|-------------------------------------------|
B|-------------------------------------------|
G|-------------------------------------------|
D|-77777777-9-9109-7-33333333----------------|
A|-77777777-9-9109-7-33333333----------------|
D|-77777777-9-9109-7-33333333-10910121091012-|x2



Bridge:
e|-----------------------------------------------------------|
B|-----------------------------------------------------------|
G|-----------------------------------------------------------|
D|-000000-000000-000000-000000-000000-000000-000000-000000\\-|
A|-000000-000000-000000-000000-000000-000000-000000-000000\\-|
D|-000000-000000-000000-000000-000000-000000-000000-000000\\-|
   ...... ...... ...... ...... ...... ...... ...... ...... 



Verse:
e|----------------------------------------------------------->
B|----------------------------------------------------------->
G|----------------------------------------------------------->
D|-000000-000000-000000-000000-000000-000000-000000-000000\\->
A|-000000-000000-000000-000000-000000-000000-000000-000000\\->
D|-000000-000000-000000-000000-000000-000000-000000-000000\\->
   ...... ...... ...... ...... ...... ...... ...... ...... 

<------------------------------------------------------|
<------------------------------------------------------|
<------------------------------------------------------|
<-000000-000000-000000-000000-000000-000000-87087087\\-|
<-000000-000000-000000-000000-000000-000000-87087087\\-|
<-000000-000000-000000-000000-000000-000000-87087087\\-|
  ...... ...... ...... ...... ...... ......  



Chorus:
e|-------------------------------------------|
B|-------------------------------------------|
G|-------------------------------------------|
D|-77777777-9-9109-7-33333333----------------|
A|-77777777-9-9109-7-33333333----------------|
D|-77777777-9-9109-7-33333333-10910121091012-|x2



Breakdown:
e|----x3----|--4th-time--|----------------x2-----------------|
B|----------|------------|-----------------------------------|
G|---2--2-2-|---2--------|------2--------------2-------------|
D|----------|----0-2-0-4-|-00000-0000002020-00000-0000004020-|
A|----------|----0-2-0-4-|-00000-0000002020-00000-0000004020-|
D|-00-00-0--|-00-0-2-0-4-|-00000-0000002020-00000-0000004020-|
   .. .. .    .. . . . .   ..... .......... ..... ..........


Chorus:
e|-------------------------------------------|
B|-------------------------------------------|
G|-------------------------------------------|
D|-77777777-9-9109-7-33333333----------------|
A|-77777777-9-9109-7-33333333----------------|
D|-77777777-9-9109-7-33333333-10910121091012-|x6 (last time is odd effect)
Suggest correction
Give kudos to tab author, rate the tab!
1 2 3 4 5
comments
print report bad tab
guest
You may want to rate the tab now too:
select rating
Wanna post a correction for this tab? Suggest correction