Oops, an error
Loading. Please wait.

Blister In The Sun Bass Tab

version 1
version 1

Whole song

Interactive

72,850 views 165 this week
1 commentread comment
1 2 3 4 5
excellent!
x 5
add to favorites
launch autoscroll
font size
0
reset
guitar tuner
Autoscroll
slow
fast
+/-
esc
set tempo
stop
Help us to improve Ultimate-Guitar.com Take our survey!
×
Contributor
Blister in the Sun                             
Violent Femmes

Tabbed By : jaronthebassist

Bass



      Q    E  E  Q    E  E     E  Q    E  Q    Q     
G||--------4-----5----4-----|-----4-------5----4----|
D||*--5-------5----------5--|--L-------5------------|
A||*------------------------|-----------------------|
E||-------------------------|-----------------------|


    Q    E  E  Q    E  E     E   E    E   Q     E    E   E     
G|-------4-----5----4-----|----------------------------------||
D|--5-------5----------5--|-----(5)--(5)-------(5)--(5)-----*||
A|------------------------|---------------------------------*||
E|------------------------|----------------------------------||


     Q    E  E  Q    E  E     E  Q    E  Q    Q       Q    E  E  Q    E  E   
G|-------------------------|-----------------------|------------------------|
D|*------------------------|-----------------------|------------------------|
A|*-------2-----3----2-----|-----2-------3----2----|-------2-----3----2-----|
E|---3-------3----------3--|--L-------3------------|--3-------3----------3--|


    E   E    E   Q     E    E   E   3x  Q    E  E  Q    E  E   
G|----------------------------------||------------------------|
D|---------------------------------*||------------------------|
A|---------------------------------*||-------2-----3----2-----|
E|-----(3)--(3)-------(3)--(3)------||--3-------3----------3--|


    E  Q    E  Q    Q       Q    E  E  Q    E  E     H        Q    Q     
G|-----------------------|------------------------|---------------------|
D|-----------------------|---------------------5--|---------------------|
A|-----2-------3----2----|-------2-----3----2-----|---------------------|
E|--L-------3------------|--3-------3-------------|-----------3----2----|


    Q    Q    E  Q    E     Q    E  E   E   E   E   E   
G|-----------------------|-----------------------------|
D|------------0--2----L--|----------0h--2p--0h--2p--0--|
A|-----------------------|-----------------------------|
E|--0--------------------|--0--------------------------|


    Q    Q    Q    E  E     E  E  Q    Q    Q       Q    Q    E  Q    E   
G|-----------------------|-----------------------|-----------------------|
D|-----------------------|-----------------------|------------0--2----L--|
A|--3----2----0-------3--|--L--3--2----0---------|-----------------------|
E|-----------------3-----|------------------3----|--0--------------------|


    Q    E  E   E   E   E   E     Q    Q    Q    Q     
G|-----------------------------|----------------------|
D|----------0h--2p--0h--2p--0--|----------------------|
A|-----------------------------|--3----2----3----4----|
E|--0--------------------------|----------------------|


    Q    E   E  E  E   E  E     E   E  E   E  E   E  E   E   
G|---------------------------|------------------------------|
D|--0----2h--4--0--2h--4--0--|--4p--0-----------------------|
A|---------------------------|---------2p--0--3p--2--3p--2--|
E|---------------------------|------------------------------|


    Q    E  E  Q    E  E     E  Q    E  Q    Q       Q    E  E  Q    E  E   
G|------------------------|-----------------------|------------------------|
D|------------------------|-----------------------|------------------------|
A|-------2-----3----2-----|-----2-------3----2----|-------2-----3----2-----|
E|--3-------3----------3--|--L-------3------------|--3-------3----------3--|


    E   E    E   Q     E    E   E     Q    E  E  Q    E  E   
G|---------------------------------|------------------------|
D|---------------------------------|------------------------|
A|---------------------------------|-------2-----3----2-----|
E|-----(3)--(3)-------(3)--(3)-----|--3-------3----------3--|


    E  Q    E  Q    Q       Q    E  E  Q    E  E     H        Q    Q     
G|-----------------------|------------------------|---------------------|
D|-----------------------|---------------------5--|---------------------|
A|-----2-------3----2----|-------2-----3----2-----|---------------------|
E|--L-------3------------|--3-------3-------------|-----------3----2----|


    Q    Q    E  Q    E     Q    E  E   E   E   E   E   
G|-----------------------|-----------------------------|
D|------------0--2----L--|----------0h--2p--0h--2p--0--|
A|-----------------------|-----------------------------|
E|--0--------------------|--0--------------------------|


    Q    Q    Q    E  E     E  E  Q    Q    Q       Q    Q    E  Q    E   
G|-----------------------|-----------------------|-----------------------|
D|-----------------------|-----------------------|------------0--2----L--|
A|--3----2----0-------3--|--L--3--2----0---------|-----------------------|
E|-----------------3-----|------------------3----|--0--------------------|


    Q    E  E   E   E   E   E     Q    Q    Q    Q     
G|-----------------------------|----------------------|
D|----------0h--2p--0h--2p--0--|----------------------|
A|-----------------------------|--3----2----3----4----|
E|--0--------------------------|----------------------|


    Q    E   E  E  E   E  E     E   E  E   E  E   E  E   E   
G|---------------------------|------------------------------|
D|--0----2h--4--0--2h--4--0--|--4p--0-----------------------|
A|---------------------------|---------2p--0--3p--2--3p--2--|
E|---------------------------|------------------------------|


     Q    E  E  Q    E  E     E  Q    E  Q    Q     
G|-------------------------|-----------------------|
D|*------------------------|-----------------------|
A|*-------2-----3----2-----|-----2-------3----2----|
E|---3-------3----------3--|--L-------3------------|


    Q    E  E  Q    E  E     E   E    E    E    E    E    E   E     
G|------------------------|---------------------------------------||
D|------------------------|--------------------------------------*||
A|-------2-----3----2-----|--------------------------------------*||
E|--3-------3----------3--|-----(3)--(3)--(3)--(3)--(3)--(3)------||


    E  E   E   E  E   E  E   E       Q    E  E  Q    E  E   
G|------------------------------||-------------------------|
D|-----5p--3p--0--3p--2---------||*------------------------|
A|-----------------------3p--0--||*-------2-----3----2-----|
E|------------------------------||---3-------3----------3--|


    E  Q    E  Q    Q       Q    E  E  Q    E  E   
G|-----------------------|------------------------|
D|-----------------------|------------------------|
A|-----2-------3----2----|-------2-----3----2-----|
E|--L-------3------------|--3-------3----------3--|


     E    E    E    E    E    E    E   E       W                 
G|-----------------------------------------||-------------------|
D|----------------------------------------*||-------------------|
A|----------------------------------------*||-------------------|
E|--(3)--(3)--(3)--(3)--(3)--(3)--(3)------||-------------------|


     Q    E  E  Q    E  E     E  Q    E  Q    Q     
G|-------------------------|-----------------------|
D|*------------------------|-----------------------|
A|*-------2-----3----2-----|-----2-------3----2----|
E|---3-------3----------3--|--L-------3------------|


    Q    Q    E  E  E  E     E   E    E   Q     E    E   E   8x
G|------------------------|----------------------------------||
D|------------------------|---------------------------------*||
A|-------2----3--2--0-----|---------------------------------*||
E|--3------------------3--|-----(3)--(3)-------(3)--(3)------||


    W                   Q    Q    E  Q    E     Q    E  E   E   E   E   E   
G|-------------------|-----------------------|-----------------------------|
D|-------------------|------------0--2----L--|----------0h--2p--0h--2p--0--|
A|-------------------|-----------------------|-----------------------------|
E|-------------------|--0--------------------|--0--------------------------|


    Q    Q    Q    E  E     E  E  Q    Q    Q       Q    Q    E  Q    E   
G|-----------------------|-----------------------|-----------------------|
D|-----------------------|-----------------------|------------0--2----L--|
A|--3----2----0-------3--|--L--3--2----0---------|-----------------------|
E|-----------------3-----|------------------3----|--0--------------------|


    Q    E  E   E   E   E   E     Q    Q    Q    Q     
G|-----------------------------|----------------------|
D|----------0h--2p--0h--2p--0--|----------------------|
A|-----------------------------|--3----2----3----4----|
E|--0--------------------------|----------------------|


    Q    E   E  E  E   E  E     E   E  E   E  E   E  E   E   
G|---------------------------|------------------------------|
D|--0----2h--4--0--2h--4--0--|--4p--0-----------------------|
A|---------------------------|---------2p--0--3p--2--3p--2--|
E|---------------------------|------------------------------|


     Q    E  E  Q    E  E     E  Q    E  Q    Q     
G|-------------------------|-----------------------|
D|*------------------------|-----------------------|
A|*-------2-----3----2-----|-----2-------3----2----|
E|---3-------3----------3--|--L-------3------------|


    Q    E  E  Q    E  E     E   E    E   Q     E    E   E     
G|------------------------|----------------------------------||
D|------------------------|---------------------------------*||
A|-------2-----3----2-----|---------------------------------*||
E|--3-------3----------3--|-----(3)--(3)-------(3)--(3)------||


Duration Legend

************************************

W - whole
H - half
Q - quarter
E - 8th
S - 16th
T - 32nd
X - 64th
. - note dotted
|-n-|  - n-tuplets

************************************

| (n)  Ghost note
| h    Hammer-on
| p    Pull-off  

************************************
Suggest correction new What's this?
You can suggest a correction to this tab. Community and Mods will review your correction and vote to approve or reject it.
comments
print report bad tab
1 comment total.
0 reply
boycew02 720 wrote on April 8 2012, 10:57 am

Headings would have been nice just to break the tab up and make it easier to read but it all sounds right to me. Good job!

guest
You may want to rate the tab now too:
select rating
Please do not post tabs as comments. Select "correction" instead!