Oops, an error
Loading. Please wait.

Blister In The Sun ukulele

version 2
version 2

Whole song

  • Includes main riff and chords for chorus to sing and play with.

Interactive

22 views 6 this week
no commentswrite comment
1 2 3 4 5
2 more votes to show rating
add to favorites
×
Save as Personal and add changes to this tab that will be seen only by you. Learn more ›
×
You can save this tab as Personal to edit and correct it or add notes. All changes will be seen only by you. Learn more »
launch autoscroll
font size
0
reset
transpose
0
reset
display chords
guitar tuner
backing track
0:00
0:00
edit
Autoscroll
slow
fast
+/-
esc
set tempo
stop
Author
Difficulty
About this tab version
Includes main riff and chords for chorus to sing and play with. Was this info helpful? Yes No
Strumming
There is no strumming pattern for this song yet. and get +5 IQ
You can do two quick muted strums at the end of each bar to simulate the drum hits in the song.

[Intro]
A|-----2p0--3--2-----2--2--3--2-----2p0--3--2-----|
E|--3-------------3--------------3-------------3--|
C|------------------------------------------------|
G|------------------------------------------------| (x4)

[Verse 1]
A|-----2p0--3--2-----2--2--3--2-----2p0--3--2-----|
E|--3-------------3--------------3-------------3--|
C|------------------------------------------------|
G|------------------------------------------------|
    When I'm out walking, I strut my stuff
    Yeah, and I'm so strung out

A|-----2p0--3--2-----2--2--3--2-----2p0--3--2-----|
E|--3-------------3--------------3-------------3--|
C|------------------------------------------------|
G|------------------------------------------------|
    I'm high as a kite, I just might
    Stop to check you out

[Chorus]
          Em
Let me go on
        C
Like I blister in the sun
          Em
Let me go on
     C                           C
Big hands, I know you're the one

[Verse 2]
A|-----2p0--3--2-----2--2--3--2-----2p0--3--2-----|
E|--3-------------3--------------3-------------3--|
C|------------------------------------------------|
G|------------------------------------------------|
    Body and beats, I stain my sheets
    I don't even know why

A|-----2p0--3--2-----2--2--3--2-----2p0--3--2-----|
E|--3-------------3--------------3-------------3--|
C|------------------------------------------------|
G|------------------------------------------------|
    My girlfriend, she's at the end
    She is starting to cry

[Chorus]
          Em
Let me go on
        C
Like I blister in the sun
          Em
Let me go on
     C                           C
Big hands, I know you're the one

[Interlude]
A|-----2p0--3--2-----2--2--3--2-----2p0--3--2-----|
E|--3-------------3--------------3-------------3--|
C|------------------------------------------------|
G|------------------------------------------------| (x4)

[Verse 3]
A|-----2p0--3--2-----2--2--3--2-----2p0--3--2-----|
E|--3-------------3--------------3-------------3--|
C|------------------------------------------------|
G|------------------------------------------------|
    When I'm out walking, I strut my stuff
    Yeah, and I'm so strung out

A|-----2p0--3--2-----2--2--3--2-----2p0--3--2-----|
E|--3-------------3--------------3-------------3--|
C|------------------------------------------------|
G|------------------------------------------------|
    I'm high as a kite, I just might
    Stop to check you out

A|-----2p0--3--2-----2--2--3--2-----2p0--3--2-----|
E|--3-------------3--------------3-------------3--|
C|------------------------------------------------|
G|------------------------------------------------|
    When I'm out walking, I strut my stuff
    Yeah, and I'm so strung out

A|-----2p0--3--2-----2--2--3--2-----2p0--3--2-----|
E|--3-------------3--------------3-------------3--|
C|------------------------------------------------|
G|------------------------------------------------|
    I'm high as a kite, I just might
    Stop to check you out

A|-----2p0--3--2-----2--2--3--2-----2p0--3--2-----|
E|--3-------------3--------------3-------------3--|
C|------------------------------------------------|
G|------------------------------------------------|
    Body and beats, I stain my sheets
    I don't even know why

A|-----2p0--3--2-----2--2--3--2-----2p0--3--2-----|
E|--3-------------3--------------3-------------3--|
C|------------------------------------------------|
G|------------------------------------------------|
    My girlfriend, she's at the end
    She is starting to cry

A|-----2p0--3--2-----2--2--3--2-----2p0--3--2-----|
E|--3-------------3--------------3-------------3--|
C|------------------------------------------------|
G|------------------------------------------------|
    When I'm out walking, I strut my stuff
    Yeah, and I'm so strung out

A|-----2p0--3--2-----2--2--3--2-----2p0--3--2-----|
E|--3-------------3--------------3-------------3--|
C|------------------------------------------------|
G|------------------------------------------------|
    I'm high as a kite, I just might
    Stop to check you out

[Chorus]
          Em
Let me go on
        C
Like I blister in the sun
          Em
Let me go on
     C                           C
Big hands, I know you're the one

[Outro]
A|-----2p0--3--2-----2--2--3--2-----2p0--3--2-----|
E|--3-------------3--------------3-------------3--|
C|------------------------------------------------|
G|------------------------------------------------|  (x2)


************************************

| p  Pull-off


************************************
Suggest correction
Creating personal tab
Creating personal tab
You can edit any tab online and save it as your Personal.

You can edit, replace or remove any tab part or add personal notes – all changes will be seen only by you.

Personal tabs can be accessed anytime from any device, even offline.
Learn more »
Give kudos to tab author, rate the tab!
1 2 3 4 5
comments
print report bad tab
guest
You may want to rate the tab now too:
select rating
Wanna post a correction for this tab? Suggest correction