Oops, an error
Loading. Please wait.

Blister In The Sun Bass Tab

version 4
version 4

Whole song

Interactive

28,981 views 72 this week
1 commentread comment
1 2 3 4 5
x 10
add to favorites
launch autoscroll
font size
0
reset
guitar tuner
Autoscroll
slow
fast
+/-
esc
set tempo
stop
Help us to improve Ultimate-Guitar.com Take our survey!
×
Author
Wait for the guitar to do the riff twice, then you come in with the verse:

|----------------------|---------------------|
|----------------------|---------------------|
|---2---3-2----2---3-2-|---2--3-2-0----------|
|-3---3------3---3-----|-3----------3--------|  x3

and end with:

|----------------------|---------------------|
|----------------------|---------------------|
|---2---3-2----2---3-2-|---2--2-3-5----------|
|-3---3------3---3-----|-3----------3--------|

You go into the chorus:

|-------|
|-------|
|-------|
|-3--2--|

And the chorus goes:

|-------------------------|-------------------|
|----0h2--------0h2-0-----|-------------------|
|---------------------3h5-|-3-2-0---3-3-2-0---|
|-0--------0--------------|-------3---------3-|

|-------------------------|-------------------------------------|
|----0h2--------0h2-0-----|-----------3h5-3h5---3---------------|
|---------------------3h5-|-3-2-3-4-5---------5---5-3-2-0-------|
|-0--------0--------------|-------------------------------0-3-0-|

Play the verse once more, another chorus and then comes the part with the stops. The 
is the same as the one in the verse, but the bass does something in between riffs one time, 
is:

|---------------|
|-5h3---3-------|
|-----5---5-3h0-|
|---------------|

The harmonic heard is played by the bass too. It's the harmonic in the 5th fret of the G string.

That's all the riffs. The bass plays the verse riff during the whole whispering part, 
just gotta be careful with the volume.

Enjoy :)
Suggest correction
comments
print report bad tab
1 comment total.
+1 reply
bengtaaron 552 Apr 11, 2013 12:52 PM

it sounds to me like during the last part of the chorus you should hammer on 3h4 on the D string instead of 3h5:

|-------------------------------------|
|-----------3h4-3h4---3---------------|
|-3-2-3-4-5---------5---5-3-2-0-------|
|-------------------------------0-3-0-|

guest
You may want to rate the tab now too:
select rating
Wanna post a correction for this tab? Suggest correction