Oops, an error
Loading. Please wait.

Blister In The Sun tab

version 5
version 5

Whole song

Interactive

84,497 views 48 this week
11 commentsread comments
1 2 3 4 5
x 48
add to favorites
×
Save as Personal and add changes to this tab that will be seen only by you. Learn more ›
×
You can save this tab as Personal to edit and correct it or add notes. All changes will be seen only by you. Learn more »
launch autoscroll
font size
0
reset
how to read this tab
guitar tuner
backing track
0:00
0:00
edit
Autoscroll
slow
fast
+/-
esc
set tempo
stop
Author
BLISTER IN THE SUN by: Violent Femmes  


Tab by: Aaron Meredith & Co.


[Intro]
e|-----------|-----------|-------------|
B|-----------|-----------|-------------|
G|-----------|-----------|-------------|
D|-----------|-----------|-------------|
A|----2--3-2-|---2---3-2-|----2--3-2---|  
E|-3---3-----|-3---3-----|-3---3-----3-|

[Verse]
                                               (optional last part)
e|-----------|-----------|----------------|    |----------------|
B|-0-3--5-3--|-0-3-3-5-3-|-0-3--5-3p-1-0--|    |--0-3--5--3--0--|
G|-0-4--5-4--|-0-4-4-5-4-|-0-4--5-4p-2-0--|    |--0-4--5--4--0--|
D|-----------|-----------|----------------|    |----------------|
A|-----------|-----------|----------------|    |----------------|  
E|-----------|-----------|----------------|(x2)|----------------|

[Verse]
(strumming)
e|--3---3-3-3-----3---3-3--3-----3---3-3-3-----3----|
B|--3---3-3-3--0--3---3-3--3--0--3---3-3-3---0-3----|
G|--0---0-0-0--0--0---0-0--0--0--0---0-0-0---0-0----|
D|--0---0-0-2--0--0---0-0--2--0--0---0-0-2---0-0----|
A|--2---2-2-3--0--2---2-2--3--0--2---2-2-3---0-2----|  
E|--3---3-3-------3---3-3--------3---3-3-------3----|(x2)


[Chorus]
e|-0---0-0---0-0-0--------0---0-0---0-0-0------|
B|-0---0-0---0-0-0--------1---1-1---1-1-1------|
G|-0---0-0---0-0-0--------0---0-0---0-0-0------|
D|-2---2-2---2-2-2-(x2)---2---2-2---2-2-2-(x2)-|
A|-2---2-2---2-2-2--------3---3-3---3-3-3------|
E|-0---0-0---0-0-0--------x---x-x---x-x-x------|
         ^   ^   ^              ^   ^   ^
e|-0---0-0---0-0-0--------0---0-0---0-0-0--|
B|-0---0-0---0-0-0--------1---1-1---1-1-1--|
G|-0---0-0---0-0-0--------0---0-0---0-0-0--|
D|-2---2-2---2-2-2-(x2)---2---2-2---2-2-2--|
A|-2---2-2---2-2-2--------3---3-3---3-3-3--|
E|-0---0-0---0-0-0--------x---x-x---x-x-x--|
         ^   ^   ^              ^   ^   ^
e|-2---2-2---2-2-2----2---2-2---2-2-2-|
B|-3---3-3---3-3-3----3---3-3---3-3-3-|
G|-2---2-2---2-2-2----2---2-2---2-2-2-|
D|-0---0-0---0-0-0----0---0-0---0-0-0-|
A|------------------------------------|
E|------------------------------------|
         ^   ^   ^          ^   ^   ^ 

Guitar: (before quiet vocals)
e|----33-3-3--3-3-3-3---33-3333---|
B|----00-1-0--0-0-1-0---00-1000---|
G|--0-00-0-00-0-0-0-0-0-00-0000---|
D|--0-00-0-00-0-0-0-0-0-00-0000---|
A|--------------------------------|  
E|--------------------------------|


e|--3-3-3-33-3-33-3-3-3-3333---|
B|--0-0-0-00-0-00-0-0-0-0000---|
G|--0-0-0-00-0-00-0-0-0-0000---|
D|--0-0-0-00-0-00-0-0-0-0000---|
A|-----------------------------|  
E|-----------------------------|

e|-----------|-----------|---------------|---------|
B|-----------|-----------|---------------|---------|
G|-----------|-----------|---------------|---12*~--|
D|-----------|-----------|---------------|---12*~--|
A|----2--3-2-|---2---3-2-|----2--3-2-0---|---------|  
E|-3---3-----|-3---3-----|-3---3-------3-|---------|


************************************

| p  Pull-off
| x  Dead note
| ^  up-stroke
| *  harmonic

************************************

            
            
Suggest correction
Creating personal tab
Creating personal tab
You can edit any tab online and save it as your Personal.

You can edit, replace or remove any tab part or add personal notes – all changes will be seen only by you.

Personal tabs can be accessed anytime from any device, even offline.
Learn more »
comments
print report bad tab
11 comments total. Showing first comments.
0 reply
guitar21@WE 254 May 02, 2005 08:00 PM

Yo, NIce Tab

+3 reply
aron444 708 Dec 20, 2005 12:41 AM

Anyone who says this tab isn't correct is smokin' something. LOL

0 reply
aron444 708 Jan 05, 2006 11:22 AM

The reason I wrote that was because some dude was trying to tell me that the some wasn't in G.

Aaron

guest
You may want to rate the tab now too:
select rating
Wanna post a correction for this tab? Suggest correction